Oops, an error
Loading. Please wait.

Careless Whisper Tab

version 1
version 1

Intro

Whole song

Interactive

89,522 views 435 this week
3 commentsread comments
1 2 3 4 5
x 22
add to favorites
launch autoscroll
font size
0
reset
how to read this tab
guitar tuner
backing track
0:00
0:00
×
Best way to learn
"Careless Whisper"
Autoscroll
slow
fast
+/-
esc
set tempo
stop
Author
Tuning
  follow
E A D G B E
Song: Careless Whisper
Artist: George Michael
Ear Tabber: Elvin Hayes Gentiles

[Intro]
e|--/12-10-------12-10-----------/8-6-----8-6-----|
B|---------10----------10-------------6-------6~--|
G|------------10----------10~-----------7---------|
D|------------------------------------------------|
A|------------------------------------------------|
E|------------------------------------------------|

(continued)
e|--6-5----------------------------------|
B|------6--------------------------8-10--|
G|--------7----------------7-9--10-------|
D|----------8~~----7-8--10---------------|
A|---------------------------------------|
E|---------------------------------------|

(continued)
e|--/12-10-------12-10-----------/8-6-----8-6-----|
B|---------10----------10-------------6-------6~--|
G|------------10----------10~-----------7---------|
D|------------------------------------------------|
A|------------------------------------------------|
E|------------------------------------------------|

(continued)
e|--6-5--------------------------------------|
B|------6--------------------------8-10------|
G|--------7----------------7-9--10-----------|
D|----------8~~----7-8--10--------------12~--|
A|-------------------------------------------|
E|-------------------------------------------|

************************************

| /  Slide up
| ~  Vibrato

************************************
Suggest correction
comments
print report bad tab
3 comments total.
0 reply
DMMegadeth 20 Jun 20, 2009 12:41 PM

you just have the wrong notes, youll get em though

0 reply
paganini#5 10 Dec 24, 2012 01:25 AM

yes the notes are wrong, see my tab instead

0 reply
carolyncoma 71 Jul 20, 2016 06:42 PM

The notes are incorrect and there is another tab that is accurate and much better than this one. so if the notes were correct this would be good but sorry

guest
You may want to rate the tab now too:
select rating
Wanna post a correction for this tab? Suggest correction