Oops, an error
Loading. Please wait.

Careless Whisper Tab

version 2
version 2

Intro

Whole song

35,863 views 108 this week
2 commentsread comments
1 2 3 4 5
x 76
add to favorites
×
Save as Personal and add changes to this tab that will be seen only by you. Learn more ›
×
You can save this tab as Personal to edit and correct it or add notes. All changes will be seen only by you. Learn more »
save as personal
new!
launch autoscroll
font size
0
reset
how to read this tab
guitar tuner
backing track
0:00
0:00
Autoscroll
slow
fast
+/-
esc
set tempo
stop
Author
Tuning
E A D G B E
         *
e|-----|---------------------------------|-------------------------------|
B|--6/-|-17--15---------17---15----------|-13--11---------13---11--------|
G|-----|--------14--------------14-------|--------10--------------10-----|
D|-----|------------15--------------15---|------------12-----------------|
A|-----|---------------------------------|-------------------------------|
E|-----|---------------------------------|-------------------------------|

e|-----------------------------|----------------------------|
B|-11--10----------------------|---------------------8--10-/|
G|--------10--7----------------|-----------7--9--10---------|
D|---------------8-------------|-7--8--10-------------------|
A|-----------------------------|----------------------------|
E|-----------------------------|----------------------------|

Repeat from *, only slide up at the end first time round.
Second time it works best to slide from 8 to 10 at the end and add a D at the 12th fret to finish.

/ = Slide up
Suggest correction
comments
print report bad tab
2 comments total.
+1 reply
d e c o d e d 10 Sep 05, 2011 09:39 PM

haha awesome. george michael FTW

0 reply
mahin6 10 Apr 20, 2017 07:11 AM

👍

guest
You may want to rate the tab now too:
select rating
Wanna post a correction for this tab? Suggest correction