Oops, an error
Loading. Please wait.

Careless Whisper Tab

version 2
version 2

Whole song

Interactive

17,684 views 45 this week
no commentswrite comment
1 2 3 4 5
x 3
add to favorites
launch autoscroll
font size
0
reset
how to read this tab
guitar tuner
Autoscroll
slow
fast
+/-
esc
set tempo
stop
Help us to improve Ultimate-Guitar.com Take our survey!
×
Artist: George Michael
Title: Careless Whisper

Dm = D Mineur = -X-5-7-7-6-5- of -X-X-0-10-10-10--|
Bb = Bes = -6-8-8-7-6-6---------------------------|
Bbmaj7 = Bes Majeur Zeven = -6-8-7-7-6-6----------|
Am7 = A Mineur Zeven = -5-7-5-5-5-5---------------|
C = C = -X-3-5-5-5-3------------------------------|

/ - slide into
p - Pull off

Riff.1                   Riff.2
e|-------3-5---------|   e|----------------|
B|-3-5-6-------7p5p3-|   B|--------------3-|
G|-------------------|   G|-------2-3-5----|
D|-------------------|   D|-2-3-5----------|
A|-------------------|   A|----------------|
E|-------------------|   E|----------------|

--- - Fade out


Intro: Dm--- | Bb--- | Bbmaj7--- | Am7--- C--- |
       Dm--- | Bb--- | Bbmaj7--- | Am7---      |

  “Dm---“ “Bb---“ “Bbmaj7---------------------|     “Am7”
e|-------1-0-1----1-0-1-1/3--5--10-12-13-10---|
B|--------------------------------------------|
G|-------------3------------------------------|
D|--------------------------------------------|
A|--------------------------------------------|
E|--------------------------------------------|

The careless whispers, of a good friend
 Dm                (riff.1)Bb
To the heart and mind, ignorance is kind
  Bbmaj7
There's no comfort in the truth
 Am7            (riff.2)
Pain is all you'll find

Dm--- | Bb | Bbmaj7 | Am7 |

  Dm                     Bb  Bbmaj7 | Am7
Should've known better, yeah

    “Dm”                         “Bb”             “Bbmaj7”    “Am7”        _2x_
Dm         Bb
I feel so unsure
      Bbmaj7                     Am7
As I take your hand and lead you to the dance floor
Dm                Bb
As the music dies, something in your eyes
 Bbmaj7
Calls to mind a silver screen
    Am7
And all its sad good-byes

Dm                         C
I'm never gonna dance again
 Bb
Guilty feet have got no rhythm
  Bbmaj7
Though it's easy to pretend
    Am7
I know your not a fool
  Dm                                          C
Should've known better than to cheat a friend
     Bb
And waste the chance that I'd been given
Bbmaj7
So I'm never gonna dance again
     Am7
The way I danced with you

  “Dm“   “Bb“    “Bbmaj7“       “Am7”
e|-------1-0-1----1-0-1-1/3--5--10-12-13-10-|
B|------------------------------------------|
G|-------------3----------------------------|
D|------------------------------------------|
A|------------------------------------------|
E|------------------------------------------|

Dm             Bb
Time can never mend
     Bbmaj7             Am7
The careless whispers, of a good friend
 Dm                (riff.1)Bb
To the heart and mind, ignorance is kind
  Bbmaj7
There's no comfort in the truth
 Am7            (riff.2) Dm---
Pain is all you'll find

I'm never gonna dance again
Guilty feet have got no rhythm
Though it's easy to pretend
I know your not a fool
Should've known better than to cheat a friend
And waste the chance that I'd been given
So I'm never gonna dance again
The way I danced with you

    “Dm”                         “Bb”             “Bbmaj7”    “Am7”        _2x_

Tonight the music seems so loud
I wish that we could lose this crowd
Maybe it's better this way
We'd hurt each other with the things we'd want to say
We could have been so good together
We could have lived this dance forever
But now who's gonna dance with me

I'm never gonna dance again
Guilty feet have got no rhythm
Though it's easy to pretend
I know your not a fool
Should've known better than to cheat a friend
And waste the chance that I'd been given
So I'm never gonna dance again
The way I danced with you

    “Dm”                         “Bb”             “Bbmaj7”    “Am7”
e|--12-10-------12-10-------|-8-6-----8-6-----|-6-5-------|---------3-5-10-|
B|--------10----------10----|-----6-------6---|-----6-3---|----3-5-6-------|
G|-----------10----------10-|-------7-------7-|---------3-|-2-3-5----------|
D|--------------------------|-----------------|-----------|----------------|
A|--------------------------|-----------------|-----------|----------------|
E|--------------------------|-----------------|-----------|----------------|

 Dm              Bb
Now that you're gone
                 Bbmaj7 Am7
Now that you're gone
 Dm              Bb
Now that you're gone
                              Bbmaj7
Was what I did so wrong, so wrong
                 Am7
That you had to leave me alone

Outro: Dm| Bb | Bbmaj7 | Am7 | 4x
Suggest correction
Give kudos to tab author, rate the tab!
1 2 3 4 5
comments
print report bad tab
guest
You may want to rate the tab now too:
select rating
Wanna post a correction for this tab? Suggest correction