Oops, an error
Loading. Please wait.

Faith Tab

version 1
version 1

Whole song

Interactive

25,093 views 12 this week
no commentswrite comment
1 2 3 4 5
please rate
add to favorites
launch autoscroll
font size
0
reset
how to read this tab
guitar tuner
Tab Pro tools
  • play this tab
  • loop segment
  • change instrument
  • show fretboard
  • metronome
×
Best way to learn
"Faith"
Autoscroll
slow
fast
+/-
esc
set tempo
stop
Contributor
Difficulty
novice
-----------------------------------------------------------------------------
                             Faith (guitar solo part) - George Michael
-----------------------------------------------------------------------------
Tabbed by: Jonathan Sheehan
Email: jonathanshhn@hotmail.com
Tuning: EADGBe (normal tuning)

This is my tabbing of the solo in "Faith" by George Michael. When listening to the solo
it sounds some guitar and some bass, so I arranged guitar and bass for guitar only. The
words on top of the tablature is what George Michael is singing during that part of the
solo.

Vocals: Oh      Doot,   Doom.   Doot,   Doom.   Do    Doot,  Doom.  Doot, 
e|-----------|----5---7--5---7--5---7---5---3---5----|--------------------|
B|-10~---8---|----5------5------5-------5---3---5----|--13--15--13--15\5--|
G|-----------|---------------------------------------|--------------------|
D|-----------|---------------------------------------|--------------------|
A|-----------|---------------------------------------|--------------------|
E|-----------|---------------------------------------|--------------------|
      Doom.      Do.           Doot, Doom. Doot, Doom. Doooo!
e|-------------------------|---------------------------------|
B|-------------------------|---6----4-----6----4----6---4----|
G|-------------------------|---6----4-----6----4----6---4----|
D|-------------------------|---------------------------------|
A|-------------------------|---------------------------------|
E|---5h7---9--7--5---3-----|---------------------------------|

Now in this next part it has a bit of a break from solo guitar and goes back to the
rhythm so I play the C Barr chord (335553) muting it on and off in rhythm with the
song. I use that chord because I play the song with the F and C Barr chord structure.
So it's like this: 
e|---3---x-----|
B|---5---x-----|
G|---5---x-----| 6 times
D|---5---x-----|
A|---3---x-----|
E|---3---x-----|
and the vocals for that part is:"I just have to wait because I’ve gotta have"
(then it moves back into the guitar solo). 
 
       faith.                                                                
e|----5---7--5---7--5---7---5---3---5---|---------------------------------|
B|----5------5------5-------5---3---5---|-14/16--16—14/16--16—14/16--16---|
G|--------------------------------------|-14/16--16-14/16--16-14/16--16---|
D|--------------------------------------|---------------------------------|
A|--------------------------------------|---------------------------------|
E|--------------------------------------|---------------------------------|
    I’ve         gotta         have                   faith
e|---------------------------------|-----------------------------------|
B|---16-----14---12--11---10-------|-----4---6---4--6---4---6---4------|
G|---------------------------------|-----4---6---4--6---4---6---4------|
D|---------------------------------|-----------------------------------|
A|---------------------------------|-----------------------------------|
E|---------------------------------|-----------------------------------|

    Got ta,    got ta,   got ta   have    faith
e|-----------------------------------------------|
B|-----------------------------------------------|
G|-----------------------------------------------|
D|-----------------------------------------------|
A|-----------------------------------------------|
E|------5/7---7----5/7---7---5/7--7---9---7\1----|

| /  slide up
| \  slide down
| h  hammer-on
| p  pull-off
| ~  vibrate
| x  Mute note
=============================================================================
comments
We did not receive enough feedback on this tab! Please rate:
print report bad tab
1 2 3 4 5
I want to post or [tab]
guest
You may want to rate the tab now too:
select rating
Please do not post tabs as comments. Select "correction" instead!