Oops, an error
Loading. Please wait.

Faith Tab

version 2
version 2

Whole song

Interactive

29,186 views 9 this week
2 commentsread comments
1 2 3 4 5
please rate
add to favorites
launch autoscroll
font size
0
reset
how to read this tab
guitar tuner
Autoscroll
slow
fast
+/-
esc
set tempo
stop
Help us to improve Ultimate-Guitar.com Take our survey!
×
George Michael - Faith (solo)  tabbed by Mike M
i noticed many tabs missed out a lot of the things which are going on in this solo so i
to write down what i thought was happening. To me it sound like two guitars one main and
doing little fills over the top. Obviously its not 100% as it is by ear so any 
are welcome just post them in a comment.
I have tried to indicate where guitar 2 comes in but the tabs are not aligned perfectly
you’ll just have to listen to the track. Where i have put 'A' later on in the tab marks
same time for both guitars,ie they come in together at 'A', i just couldn’t be bothered 
move guitar 2 forward. I think that's about it, so have fun..

Guitar 1 and 2 – standard tuning

Guitar 1
e|---------------------------------------------------------------|
B|-----------------------7--------7-----7/9-7-----7--------7-7---|
G|--11b12r11--9-----------------8-----8-------------8------------|
D|--12b13r12--10---8/9------8/9-----9---------7h9-----9--9-------|
A|---------------------------------------------------------------|
E|---------------------------------------------------------------|


Guitar 2
e|-----------------------------------------------------------14-|
B|-----------------------------------------------------------16-|
G|--------------------------------------------------------------|
D|------------------------------------------------9-------------|
A|-------------------------------------------9h11---11p9--------|
E|--------------------------------------------------------------|


Guitar 1
e|-------------------------------0---0----0---0----0--------|
B|-----7-7------7\---------------5---3----5---3----5--------|
G|------------8------------------4---4----4---4----4--------|
D|--9-------9----------------------0----0---0---0-----------|
A|----------------------------------------------------------|
E-----------------------------------------------------------|

Guitar 2
e|-12---11\-------------------------------------------------|
B|-14---13\-------------------------------------------------|
G|----------------------------------------------------------|
D|--------------------5-------------------------------------|
A|----------------5h7---7p5---------------------------------|
E|--------------------------5\------------------------------|

Guitar 1
e|-------------------------------------------------------------|
B|-------------------------------------------------------------|
G|-------------------------------------------------------------|
D|-------------------------------------------------------------|
A|-------------------------------------------------------------|
E|--6/7--7-7--7-7-7-( to rhythm of intro chords)---------------|

Guitar2
e|--------------------------------------------------------------|
B|--------------------------------------------------------------|
G|--------------------------------------------------------------|
D|--------------------------------------------------------------|
A|--------------------------------------------------------------|
E|--------------------------------------------------------------|


Guitar 1

                            A
e|--------------------------------------------------------|
B|------7-------7------7/9--7-----7---------7--7----7--7--|
G|------------8------8--------------8---------------------|
D|--8/9---8/9-----9-----------7h9-----9---9------9--------|
A|--------------------------------------------------------|
E|--------------------------------------------------------|


Guitar2                         A
e|----------------------------------------------------------|
B|-----------------------------14b16-(16)16---14b16-(16)-16-|
G|----------------------------(hold bend--------------------|
D|-------------------------------for repeated sixteenth)----|
A|----------------------------------------------------------|
E|----------------------------------------------------------|


Guitar1

e|----------------------------------------------------|
B|--7h9--7-------9------------------------------------|
G|-----------------8----------------------------------|
D|9---------7h9-------7-------------------------------|
A|----------------------------------------------------|
E|----------------------------------------------------|

Guitar 2
e|--------------------------------------------------------------|
B|--14b16-(16)-(16)---14b16-(16)-16—14b16-(hold)16r14p12--------|
G|-------------------------------------------------------13\----|
D|--------------------------------------------------------------|
A|--------------------------------------------------------------|
E|--------------------------------------------------------------|

Guitar 1
e|0---0---0---0---0-----------------------------------|
B|5---3---5---3---5-----------------------------------|
G|4---4---4---4---4-----------------------------------|
D|--0---0---0---0-------------------------------------|
A|----------------------------------------------------|
E|---------------------6/7-7—6/7-7-6/7-7-6/7-7-7\-----|

Guitar 2

e|------------------------------------------------|
B|------------------------------------------------|
G|------------------------------------------------|
D|------------------------------------------------|
A|------------------------------------------------|
E|------------------------------------------------|
Suggest correction
Give kudos to tab author, rate the tab!
1 2 3 4 5
comments
print report bad tab
2 comments total.
0 reply
Trey3 93 wrote on April 14 2011, 08:38 pm

This is far better than the other solo version. I can't fully play it yet but at least a good portion of it is correct. Thanks.

0 reply
grujicduc 10 wrote on August 2 2014, 02:51 am

Clearly wrong.

guest
You may want to rate the tab now too:
select rating
Please do not post tabs as comments. Select "correction" instead!