Oops, an error
Loading. Please wait.

Faith Tab

version 4
version 4

Whole song

Interactive

3,071 views 18 this week
1 commentread comment
1 2 3 4 5
please rate
add to favorites
launch autoscroll
font size
0
reset
how to read this tab
guitar tuner
Autoscroll
slow
fast
+/-
esc
set tempo
stop
Help us to improve Ultimate-Guitar.com Take our survey!
×
Contributor
Tempo = 96
Electric Guitar clean
Standard Tuning

George Michael
Faith
October 1987


Legend
L - tied note
x - dead note
h - hammer on/pull off
b - bend
s - slide
~ - vibrato
g - ghost note
> - accentuated note
t - trill
M - palm mute
. - staccato
P - popping (bass)
S - slapping (bass)
+ - tapping
W - wide vibrato
< - fade in
w - whammy bar
= - tremolo picking
v - brush up
^ - brush down
V - pick stroke up
n - pick stroke down


E |----------------------------------------------------|
B |--7L----7-----4-----------7--------7--------9L-9h---|
G |--6L----6b----4-----8s----------8--------8----------|
D |----------------------------------------------------|
A |----------------------------------------------------|
E |----------------------------------------------------|


--------------------------11.------9.-------7L------|
--7L-7----------------------------------------------|
--------------4--6--4-----11.------9.-------8L------|
--------4s-6----------------------------------------|
----------------------------------------------------|
----------------------------------------------------|


--7-----------------------------0-------------------|
--------------------------------0--------3----------|
--8-----------------------------1-------------------|
--------------------------------2-------------------|
-----------------2----------------------------------|
-----------3--4-----4--2--0-------------------------|


--0-----------------0-------------------------------|
--0--------3--------0-------------------------------|
--1-----------------1-------------------------------|
--2-----------------2-------------------------------|
--------------------------0h-2-----0--2-----0--2L---|
----------------------------------------------------|


----------------------------------------------------|
-----------------------------7--------7--------7L---|
--------------------------8s-------8--------8-------|
----------------------------------------------------|
--2--0h-2-----2-------------------------------------|
----------------------------------------------------|


------------------------------------------------------------|
--7---------------7---------------9-----------------------7-|
--------------8-----------------------8---------------------|
------------------------------------------------------------|
------------------------------------------------------------|
------------------------------------------------------------|


------------------------------------------------------------|
---------16----------16----------------------16----------16-|
---------18L---------18----------------------18L---------18-|
------------------------------------------------------------|
------------------------------------------------------------|
------------------------------------------------------------|


------------------------------------|
----------16-------------16L--------|
----------18L---------18L18L--------|
------------------------------------|
------------------------------------|
------------------------------------|


--------------------------------------------------------------------|
--16-------16-------------------------------------------------------|
--18L18----18L---------18b---------------16-------------------------|
--------------------------------------------------------------------|
--------------------------------------------------------------------|
-----------------------------------------------------------------0--|


---------0----------------------------------------------------------|
---------------------------------------------3----------------------|
--------------------------------------------------------------------|
--------------------------------------------------------------------|
--------------------------------------------------------------------|
--------------------------------------------------------------------|


-0L----------------------0----------|
------------------------------------|
------------------------------------|
------------------------------------|
------------------------------------|
------------------------------------|


-----------0----------------------------------------|
--3--------------3----------------------------------|
----------------------------------------------------|
----------------------------------------------------|
-----------------------0h-2--2--0h-2--2--0h-2--2----|
----------------------------------------------------|


----------------------------------------------------||
----------------------------------------------------||
----------------------------------------------------||
----------------------------------------------------||
--0L-------0h-2-----------2-------------------------||
----------------------------------------------------||
Suggest correction new What's this?
You can suggest a correction to this tab. Community and Mods will review your correction and vote to approve or reject it.
comments
We did not receive enough feedback on this tab! Please rate:
print report bad tab
1 2 3 4 5
1 comment total.
0 reply
grujicduc 12 wrote on August 2 2014, 02:53 am

Lack of accuracy.

guest
You may want to rate the tab now too:
select rating
Please do not post tabs as comments. Select "correction" instead!