Oops, an error
Loading. Please wait.
We have an official Faith tab made by UG professional guitarists. Check out the tab »
×
2,089 views 9 this week
no commentswrite comment
1 2 3 4 5
x 4
add to favorites
×
Save as Personal and add changes to this tab that will be seen only by you. Learn more ›
×
You can save this tab as Personal to edit and correct it or add notes. All changes will be seen only by you. Learn more »
save as personal
new!
launch autoscroll
font size
0
reset
guitar tuner
backing track
0:00
0:00
Autoscroll
slow
fast
+/-
esc
set tempo
stop
Author
Difficulty
intermediate
                                         Faith
                                    George Michael
                                    

Bass                                                               George Michael

In 2/2

Intro 1

Organ (No Bass)

Intro 2

|--------------|-----------------|
|--- 7 Bars ---|-----------------|
|---  Rest  ---|-------------2-4-|
|--------------|---------2-4-----|
                 H       E E E E

Verse 1

|-----------------|-----------------|-----------------|-----------------|
|-----------------|-----------------|-----------------|-----------------|
|-2-----2---x-2---|---x-2---2-------|-2-----2---2-2---|---2-2-------2-4-|
|-----------------|-------------2-4-|-----------------|---------2-4-----|
  Q.    Q   E E E   E E Q   Q   E E   Q.    Q   E E E   E E Q   E E E E

|-----------------|-----------------|-----------------|-----------------|
|-----------------|-----------------|-----------------|-----------------|
|-----------------|-----------------|-2-----2---2-2---|---2-2-------2-4-|
|-0-----0-----0---|---x-0---0---2-4-|-----------------|---------2-4-----|
  Q.    Q   E E E   E E Q   Q   E E   Q.    Q   E E E   E E Q   E E E E

|-----------------|-----------------|-----------------|-----------------|
|-----------------|-----------------|-----------------|-----------------|
|-2-----2---x-2---|---2-2---2-------|-2-----2---2-2---|---2-2-------2-4-|
|-----------------|-------------2-4-|-----------------|---------2-4-----|
  Q.    Q   E E E   E E Q   Q   E E   Q.    Q   E E E   E E Q   E E E E

|-----------------|-----------------|-----------------|-----------------|
|-----------------|-----------------|-----------------|-----------------|
|-----------------|-------------2-4-|-2-----2-----2---|---2-2-------2-4-|
|-0-----0-----0---|---x-0---2-4-----|-----------------|---------2-4-----|
  Q.    Q   E E E   E E Q   E E E E   Q.    Q   E E E   E E Q   E E E E

Pre-Chorus 1

|-----------------|-----------------|-----------------|-----------------|
|-----------------|-----------------|-----------------|-----------------|
|-----------------|---------------2-|-2-----2-----2---|(2)x-2---2-------|
|-0-----0-----0---|(0)--0-----2-4---|-----------------|-------------2-4-|
  Q.    Q.    Q     Q   Q   E E E E   Q.    Q.    Q     E E Q   Q   E E

|-----------------|-----------------|-----------------|-----------------|
|-----------------|-----------------|-------------1---|(1)4---1-4-4-2-1-|
|-----------------|-----------------|-2-----4---------|-----------------|
|-0-----0-----0---|(0)0-0---0---2-4-|-----------------|-----------------|
  Q.    Q.    Q     E E Q   Q   E E   Q.    Q.    Q     E Q   E E E E E

|-----------------|-----------------|-----------------|-----------------|
|-2---------------|-----------------|-----------------|-----------------|
|-------2---------|-------------2-4-|-2-----1---------|-------------2-4-|
|-------------0---|(0)0-0---2-4-----|-------------4---|(4)4-4---4-------|
  Q.    Q.    Q     E E Q   E E E E   Q.    Q.    Q     E E Q   Q   E E

|-----------------|-----------------|-----------------|-----------------|
|-----------------|-----------------|-----------------|-----------------|
|-4-----4-----4---|(4)4-4---4-------|-----------------|-----------------|
|-----------------|-------------2-4-|-2-----2-----2---|(2)--------------|
  Q.    Q.    Q     E E Q   Q   E E   Q.    Q.    Q     E E Q   H

Chorus 1

|-----------------|-----------------|-----------------|-----------------|
|-----------------|-----------------|-----------------|-----------------|
|-2-----2-----2---|---2-2-------2-4-|-2-----2-----2---|---2-----x-x-2-4-|
|-----------------|---------2-4-----|-----------------|-----2-4---------|
  Q.    Q.    Q     E E Q   E E E E   Q.    Q.    Q     E E E E E E E E

|-----------------|-----------------|-----------------|-----------------|
|-----------------|-----------------|-----------------|-----------------|
|-2-----2-----2---|---2-2-------2-4-|-2-----2-----2---|(2)--------------|
|-----------------|---------2-4-----|-----------------|-----------------|
  Q.    Q.    Q     E E Q   E E E E   Q.    Q.    Q     E E Q   H

Verse 2

|-----------------|-----------------|-----------------|-----------------|
|-----------------|-----------------|-----------------|-----------------|
|-2-----2-----2---|---x-2-------2-4-|-2-----2-----2---|---2-4\----------|
|-----------------|---------2-4-----|-----------------|-----------------|
  Q.    Q.    E E   E E Q   E E E E   Q.    Q.    E E   E E H.  

|-----------------|-----------------|-----------------|-----------------|
|-----------------|-----------------|-----------------|-----------------|
|-----------------|-------------2-4-|-2-----2-----2---|---2-2---2-------|
|-0-----0-----0---|---0-0---2-4-----|-----------------|-------------2-4-|
  Q.    Q.    E E   E E Q   E E E E   Q.    Q.    E E   E E Q   Q   E E

|-----------------|-----------------|-----------------|-----------------|
|-----------------|-----------------|-----------------|-----------------|
|-2-----2-----2---|---2-2---2-------|-2-----2-----2---|---2-2-------2-4-|
|-----------------|-------------2-4-|-----------------|---------2-4-----|
  Q.    Q.    E E   E E Q   Q   E E   Q.    Q.    E E   E E Q   E E E E

|-----------------|-----------------|-----------------|-----------------|
|-----------------|-----------------|-----------------|-----------------|
|-----------------|-------------2-4-|-2-----2-----2---|---2-2-------2-4-|
|-0-----0-----0---|---0-0---2-4-----|-----------------|---------2-4-----|
  Q.    Q   E E E   E E Q   E E E E   Q.    Q   E E E   E E Q   E E E E

Pre-Chorus 2

|-----------------|-----------------|-----------------|-----------------|
|-----------------|-----------------|-----------------|-----------------|
|-----------------|-----------------|-2-----2-----2---|(2)2-2---2-------|
|-0-----0-----0---|(0)0-0---0---2-4-|-----------------|-------------2-4-|
  Q.    Q.    Q     E E Q   Q   E E   Q.    Q.    Q     E E Q   Q   E E

|-----------------|-----------------|-----------------|-----------------|
|-----------------|-----------------|-------------1---|(1)4---1-4-4-2-1-|
|-----------------|-------------2-4-|-2-----4---------|-----------------|
|-0-----0-----0---|(0)0-0---2-4-----|-----------------|-----------------|
  Q.    Q.    Q     E E Q   E E E E   Q.    Q.    Q     E Q   E E E E E

|-----------------|-----------------|-----------------|-----------------|
|-x-----x---------|-----------------|-----------------|-----------------|
|-----------------|-------------2-4-|-2-----1---------|-------------2-1-|
|-------------0---|(0)0-0---2-4-----|-------------4---|(4)4-4---4-------|
  Q.    Q.    Q     E E Q   E E E E   Q.    Q.    Q     E E Q   Q   E E

|-----------------|-----------------|-----------------|-----------------|
|-----------------|---------4-6-4-6-|-4---------------|-----------------|
|-4-----4-----4---|(4)4-4-----------|-------4---------|-----------------|
|-----------------|-----------------|-------------2---|(2)--------------|
  Q.    Q.    Q     E E Q   E E E E   Q.    Q.    Q     E E Q   H

Chorus 2

|-----------------|-----------------|-----------------|-----------------|
|-----------------|-----------------|-----------------|-4-------6\------|
|-2-----2-----2---|---2-2-------2-4-|-2-----2-----2-2-|-------2---------|
|-----------------|---------2-4-----|-----------------|-----------------|
  Q.    Q.    Q     E E Q   E E E E   Q.    Q.    E E   Q.    E H

|-----------------|-----------------|-----------------|-----------------|
|-----------------|-----------------|-----------------|-----------------|
|-2-----2-----2---|---2-2-------2-4-|-2-----2-----2---|(2)--------------|
|-----------------|---------2-4-----|-----------------|-----------------|
  Q.    Q.    Q     E E Q   E E E E   Q.    Q.    Q     E E Q   H

Solo

|-----------------|-----------------|-----------------|-----------------|
|-----------------|-----------------|-----------------|-----------------|
|-2-----2-----2---|---x-2-------2-4-|-2-----2-----2---|---2-4\----------|
|-----------------|---------2-4-----|-----------------|-----------------|
  Q.    Q.    E E   E E Q   E E E E   Q.    Q.    E E   E E H.  

|-----------------|-----------------|-----------------|-----------------|
|-----------------|-----------------|-----------------|-----------------|
|-----------------|-------------2-4-|-2-----2-----2---|---2-2---2-------|
|-0-----0-----0---|---0-0---2-4-----|-----------------|-------------2-4-|
  Q.    Q.    E E   E E Q   E E E E   Q.    Q.    E E   E E Q   Q   E E

|-----------------|-----------------|-----------------|-----------------|
|-----------------|-----------------|-----------------|-----------------|
|-2-----2-----2---|---2-2---2-------|-2-----2-----2---|---2-2-------2-4-|
|-----------------|-------------2-4-|-----------------|---------2-4-----|
  Q.    Q.    E E   E E Q   Q   E E   Q.    Q.    E E   E E Q   E E E E

|-----------------|-----------------|-----------------|-----------------|
|-----------------|-----------------|-----------------|-----------------|
|-----------------|-------------2-4-|-2-----2-----2---|---2-2-------2-4-|
|-0-----0-----0---|---0-0---2-4-----|-----------------|---------2-4-----|
  Q.    Q   E E E   E E Q   E E E E   Q.    Q   E E E   E E Q   E E E E

Pre-Chorus 3

|-----------------|-----------------|-----------------|-----------------|
|-----------------|-----------------|-----------------|-----------------|
|-----------------|-----------------|-2-----2-----2---|(2)2-2---2-------|
|-0-----0-----0---|(0)0-0---0---2-4-|-----------------|-------------2-4-|
  Q.    Q.    Q     E E Q   Q   E E   Q.    Q.    Q     E E Q   Q   E E

|-----------------|-----------------|-----------------|-----------------|
|-----------------|-----------------|-------------1---|(1)4---1-4-4-2-1-|
|-----------------|-------------2-4-|-2-----4---------|-----------------|
|-0-----0-----0---|(0)0-0---2-4-----|-----------------|-----------------|
  Q.    Q.    Q     E E Q   E E E E   Q.    Q.    Q     E Q   E E E E E

|-----------------|-----------------|-----------------|-----------------|
|-2-----x---------|-----------------|-----------------|-----------------|
|-----------------|-------------2-4-|-2-----1---------|-------------2-1-|
|-------------0---|(0)0-0---2-4-----|-------------4---|(4)4-4---4-------|
  Q.    Q.    Q     E E Q   E E E E   Q.    Q.    Q     E E Q   Q   E E

|-----------------|-----------------|-----------------|-----------------|-----------------|
|-----------------|---------4-6-4-6-|-4---------------|-----------------|-----------------|
|-4-----4-----4---|(4)4-4-----------|-------4---------|-----------------|-----------------|
|-----------------|-----------------|-------------2---|-----------------|-----------------|
  Q.    Q.    Q     E E Q   E E E E   Q.    Q.    E E   W                 W

Chorus 3

|-----------------|-----------------|-----------------|-----------------|
|-----------------|-----------------|-----------------|-4-------6\------|
|-2-----2-----2---|---2-2-------2-4-|-2-----2-----2-2-|-------2---------|
|-----------------|---------2-4-----|-----------------|-----------------|
  Q.    Q.    Q     E E Q   E E E E   Q.    Q.    E E   Q.    E H

|-----------------|-----------------|-----------------|-----------------|
|-----------------|-----------------|-----------------|-----------------|
|-2-----2-----2---|---2-2-------2-4-|-2-----2-----2---|(2)--------------|
|-----------------|---------2-4-----|-----------------|-----------------|
  Q.    Q.    Q     E E Q   E E E E   Q.    Q.    Q     E E Q   H


Key to rhythm notations:

W - Whole Note/Semi-Brieve
H - Half Note/Minim
Q - Quarter Note/Crotchet       Q. - Dotted Quarter Note
E - Eight Note/Quaver           E. - Dotted Eight Note
S - Sixteenth Note/Semi-Quaver  S. - Dotted Sixteenth Note
T - Thirty Second Note/         T. - Dotted Thirty Second Note
              Demi-Semi Quaver
Suggest correction
comments
print report bad tab
guest
You may want to rate the tab now too:
select rating
Wanna post a correction for this tab? Suggest correction