Oops, an error
Loading. Please wait.

Such A Fool tab

version 1
version 1

Whole song

9,758 views 1 this week
2 commentsread comments
1 2 3 4 5
1 last vote to show rating
add to favorites
×
Save as Personal and add changes to this tab that will be seen only by you. Learn more ›
×
You can save this tab as Personal to edit and correct it or add notes. All changes will be seen only by you. Learn more »
launch autoscroll
font size
0
reset
how to read this tab
guitar tuner
edit
Autoscroll
slow
fast
+/-
esc
set tempo
stop
Author
this is my first tab so plz correct me if it sounds off to you. it's pretty much this 
throughout the entire song.

x = tap

|-------------------x-------x------------|
|-----7h9p7-------5-x-----7-x-----3------|
|----6-----6-----6--x----6--x----2-2-----|
|---8-------8---6---x---8---x---4---4----|
|--6-----------4----x--6----x--2---------|
|-------------------x-------x------------|

|-------------------x-------x--------------|
|-----7h9p7-------5-x-----7-x-----3----3---|
|----6-----6-----6--x----6--x----2-2--2-2--|
|---8-------8---6---x---8---x---4----4---4-|
|--6-----------4----x--6----x--2----2------|
|-------------------x-------x--------------|
Suggest correction
Creating personal tab
Creating personal tab
You can edit any tab online and save it as your Personal.

You can edit, replace or remove any tab part or add personal notes – all changes will be seen only by you.

Personal tabs can be accessed anytime from any device, even offline.
Learn more »
Give kudos to tab author, rate the tab!
1 2 3 4 5
comments
print report bad tab
2 comments total.
0 reply
Hansana 10 Feb 10, 2007 10:58 PM

hey great job, i love this song!!
hey can you get stay up by george?

0 reply
GodinGuy 93 Feb 27, 2007 03:25 PM

not even...

guest
You may want to rate the tab now too:
select rating
Wanna post a correction for this tab? Suggest correction