Oops, an error
Loading. Please wait.

Bad To The Bone Tab

version 1
version 1

Intro

Whole song

Interactive

Video

105,113 views 69 this week
11 commentsread comments
1 2 3 4 5
x 33
add to favorites
launch autoscroll
font size
0
reset
how to read this tab
guitar tuner
×
Best way to learn
"Bad To The Bone"
Autoscroll
slow
fast
+/-
esc
set tempo
stop
e|----------------------|
B|----------------------|
G|---0--0--5b--0--3--0--|
D|---0--0--5b--0--3--0--|
A|----------------------|
E|----------------------|

e|----------------------|
B|----------------------|
G|---0--0--5b--0--3--0--|
D|---0--0--5b--0--3--0--|
A|----------------------|
E|----------------------|


************************************

| /  Slide up
| b  Bend

************************************
Suggest correction
comments
print report bad tab
11 comments total. Showing first comments.
+1 reply
soac 10 Apr 01, 2003 07:00 PM

not bad, it sounds just about write, but i cant tell whats wrong with it :)

0 reply
SoulX 10 Apr 29, 2003 08:00 PM

b-bend
/slide

e|------------------------|
B|------------------------|
G|---0--0--5b--0--2/3--0--|
D|---0--0--5b--0--2/3--0--|
A|------------------------|
E|------------------------|

e|------------------------|
B|------------------------|
G|---0--0--5b--0--2/3--0--|
D|---0--0--5b--0--2/3--0--|
A|------------------------|
E|------------------------|

0 reply
sargasm 230 May 24, 2003 08:00 PM

this is played in open G tuning with a slide

guest
You may want to rate the tab now too:
select rating
Wanna post a correction for this tab? Suggest correction