Oops, an error
Loading. Please wait.

Sweet Little Lady Bass Tab

16 views 1 this week
no commentswrite comment
1 2 3 4 5
3 more votes to show rating
add to favorites
launch autoscroll
font size
0
reset
guitar tuner
Autoscroll
slow
fast
+/-
esc
set tempo
stop
Help us to improve Ultimate-Guitar.com Take our survey!
×
Author
Sweet Little Lady
Track by George Thorogood and The Destroyers taken from his album
30th Anniversary UK Tour. Bass performance Billy Blough. Tab by bass50611 
Like all his tracks this seems to ooze energy and to coin one of 
George’s phrases ‘How Sweet It Is’ Tab not exact as original bass line.
Comments at bass254@btinternet.com 

Intro: Guitar only No Bass

Verse 1:
G|------------------------------------------------------------------|
D|------------------------------------------------------------------|
A|-5-5-5-5-5-5-5-5--5-5-5-5-5-5-5-5--5-5-5-5-5-5-5------------------|
E|------------------------------------------------3/5-5-5-5-5-5-5-5-|

G|------------------------------------------------------------|
D|------------------------------------------------------------|
A|-5-5-5-5-3-2------------------5-5-5---------5-5-5-5-5-5-5-3-|
E|------5-----5-3-3-3-3-3-3-3-3------3/5-5-5-5----------------|

Verse 2:
G|------------------------------------------------------------------|
D|------------------------------------------------------------------|
A|-5-5-5-5-5-5-5-5--5-5-5-5-5-5-5-5--5-5-5-5-5-5-5-5----------------|
E|--------------------------------------------------5-5-5-5-5-5-5-5-|

G|---------------------------------------------------------------|
D|---------2-3-4-5-----------------------------------------------|
A|-5-5-5-5-----------------2-3-4-5-5-5-5---------5-5-5-5-5-2-3-4-|
E|------5----------3-3-3-3---------------5-5-5-5-----------------|

Verse 3:
G|------------------------------------------------------------------|
D|------------------------------------------------------------------|
A|-5-5-5-5-5-5-5-5--5-5-5-5-5-5-5-5--5-5-5-5-5-5-5------------------|
E|------------------------------------------------3/5-5-5-5-5-5-5-5-|

G|---------------------------------------------------------------|
D|---------2-3-4-------------------------------------------------|
A|-5-5-5-5-----------------------5-5-5-5---------5-5-5-5-5-5-5-3-|
E|------5--------3-3-3-3-3-3-3-3---------5-5-5-5-----------------|

Bridge And Solo:
 (Pause)      (Pause)      (Pause)      (Pause)
G|--------------------------------------------------7-7-7-7-|
D|----------------------------------------------------------|
A|-5----------3-5----------3-5----------3-5-----------------|
E|----------------------------------------------------------|

G|------------------------------------------------------------------|
D|------------------------------------------------------------------|
A|-5-5-5-5-5-5-5-5--5-5-5-5-5-5-5-3--5-5-5-5-5-5-5------------------|
E|------------------------------------------------3/5-5-5-5-5-5-5-5-|

G|---------------------------------------------------------------|
D|---------------------------------------------------------------|
A|-5-5-5-5-3-2------0-3---2-3-4-5-5-5-5----------5-5-5-5-5-5-5-5-|
E|------5-----5-3-3-----3---------------5-5-5-5------------------|

G|------------------------------------------------------------------|
D|------------------------------------------------------------------|
A|-5-5-5-5-5-5-5-5--5-5-5-5-5-5-5-5--5-5-5-5-5-5-5------------------|
E|------------------------------------------------3/5-5-5-5-5-5-5-5-|

G|-------------------------------------------------------------|
D|-------------------------------------------------------------|
A|-5-5-5-5-3-2------------2-3-4-5-5-5----------5-5-5-5-5-5-5-5-|
E|------5-----5-3-3-3-3-3------------3/5-5-5-5-----------------|

Verse 4:
G|------------------------------------------------------------------|
D|------------------------------------------------------------------|
A|-5-5-5-5-5-5-5-5--5-5-5-5-5-5-5-5--5-5-5-5-5-5-5------------2-3-4-|
E|------------------------------------------------3/5-5-5-5-5-------|

G|---------------------------------------------------------------|
D|---------2-3-4-5-----------------------------------------------|
A|-5-5-5-5-----------------------5-5-5-5---------5-5-5-5-5-2-3-4-|
E|------5----------3-3-3-3-3-3-3---------5-5-5-5-----------------|

Verse 5:
G|------------------------------------------------------------------|
D|------------------------------------------------------------------|
A|-5-5-5-5-5-5-5-5--5-5-5-5-5-5-5-5--5-5-5-5-5-5-5------------------|
E|------------------------------------------------3/5-5-5-5-5-5-5-5-|

G|----------------------------------------------|
D|----------------------------------------------|
A|-5-5-5-5-3-2------------------5-5-5-5---------|
E|------5-----5-3-3-3-3-3-3-3-3---------5-5-5-5-|

Outro Solo:         (Pause)    (Pause)    (Pause)     (Pause)
G|----------------2-----------------------------------------------7-7-7-7-|
D|----------2--5----------------------------------------------------------|
A|----2--5-----------5---------3-5---------3-5---------3-5----------------|
E|-3----------------------------------------------------------------------|

G|---------------------------------------------------------------------|
D|---------------------------------------------------------------------|
A|-5-5-3-3--5-5-5-5--5-5-5-5-5-5-5-5--5-5-5-5-5-5-5-5--5-5-5-5-5-5-5-5-|
E|------5--------------------------------------------------------------|

G|-----------------------------------------------------------------|
D|----------------------------2-3-4----------2-3-4----------2-3-4--|
A|-5-5-5-5-5-5-5-5--5-5-5-5-5-------5-5-3-3-5------5-5-3-3-5-------|
E|---------------------------------------5--------------5----------|

G|---------------------------------------------------------------------|
|D|----------2-3-4-----------------------------------------------------|
A|-5-5-3-3-5------5-5-3-3--5-5-3-3--5-5-3-3--5-5-5-5--5-5-3-3--5-5-3-3-|
E|------5--------------5--------5--------5-----------------5--------5--|

                                                                     (End)
G|------------------------------------------------------------------------|
D|------------------------------------------------------------------------|
A|-5-5-3-3--5-5-3-3--5-5-3-3--5-5-3-3--5-5-3-3--5-5-3-3--5--3---3---3-4-5-|
E|------5--------5--------5--------5--------5--------5--------5---5-------|

Suggest correction
Give kudos to tab author, rate the tab!
1 2 3 4 5
comments
print report bad tab
guest
You may want to rate the tab now too:
select rating
Wanna post a correction for this tab? Suggest correction