Oops, an error
Loading. Please wait.

Who Do You Love chords

version 1
version 1

Whole song

Interactive

36,427 views 36 this week
1 commentread comment
1 2 3 4 5
x 20
add to favorites
×
Save as Personal and add changes to this tab that will be seen only by you. Learn more ›
×
You can save this tab as Personal to edit and correct it or add notes. All changes will be seen only by you. Learn more »
launch autoscroll
font size
0
reset
transpose
0
reset
display chords
guitar tuner
edit
Autoscroll
slow
fast
+/-
esc
set tempo
stop
Author
Strumming
There is no strumming pattern for this song yet. and get +5 IQ
George Thorogood - Who Do You Love
(This was originally played by Mr. Bo Diddley)

STANDARD TUNING

PLEASE LISTEN TO THE SONG WHEN YOU PLAY
Chords: 
E E E E E E E E (REPEAT)
E E E E E A E (REPEAT)

He also adds a nice little riff inbetween.

e-12-12-12-12-12-10-10-------------------------------------------------------|
B-12-12-12-12-12-10-10-------------------------------------------------------|
G-13-13-13-13-13-11-11-------------------------------------------------------|
D----------------------------------------------------------------------------|
A----------------------------------------------------------------------------|
E---------------------12-12-11-11-10-10-9-9-8-8-7-7-6-6-5-5-4-4-3-3-2-2-1-1--|
                      ^Play this very fast. You can also just slide.

Have Fun!
Suggest correction
Creating personal tab
Creating personal tab
You can edit any tab online and save it as your Personal.

You can edit, replace or remove any tab part or add personal notes – all changes will be seen only by you.

Personal tabs can be accessed anytime from any device, even offline.
Learn more »
comments
print report bad tab
1 comment total.
0 reply
ChiTownHippie 62 Aug 09, 2011 06:46 AM

I kinda hear it translates from E to A
and e-12-12-12-12-12-10-10-12------------------------------------------------------|
B-12-12-12-12-12-10-10-12------------------------------------------------------|
G-13-13-13-13-13-11-11-13------------------------------------------------------|
sounds better with the song
and instead of playing the "12,12,11,11 ect really fast, just hit each note while you slide down the neck to the beat of the song. otherwise this tab helped me just solo over the song.

guest
You may want to rate the tab now too:
select rating
Wanna post a correction for this tab? Suggest correction