Oops, an error
Loading. Please wait.

Sunny bass

version 2
version 2

Whole song

13 views 3 this week
no commentswrite comment
1 2 3 4 5
2 more votes to show rating
add to favorites
×
Save as Personal and add changes to this tab that will be seen only by you. Learn more ›
×
You can save this tab as Personal to edit and correct it or add notes. All changes will be seen only by you. Learn more »
launch autoscroll
font size
0
reset
guitar tuner
edit
Autoscroll
slow
fast
+/-
esc
set tempo
stop
Artist: Georgie Fame
Song: Sunny
Tuning - Standard
Time- 4/4 124bpm
tabbed by electricbunny
 
[Verse 1]
G|--------------------------------|--------------------------------|
D|1-----------1---1-----------1---|4-----------4---4-----------4---|
A|--------------------------------|--------------------------------|
E|--------------------------------|--------------------------------|
 
G|--------------------------------|--------------------------------|
D|--------------------------------|3-----------3-------------------|
A|2-----------2---2-----------2---|----------------1-----------1---|
E|--------------------------------|--------------------------------|
 
G|--------------------------------|--------------------------------|
D|1-----------1---1-----------1---|4-----------4---4-----------4---|
A|--------------------------------|--------------------------------|
E|--------------------------------|--------------------------------|
 
G|--------------------------------|--------------------------------|
D|--------------------------------|3-----------3-------------------|
A|2-----------2---2-----------2---|----------------1-----------1---|
E|--------------------------------|--------------------------------|

[Chorus] 
G|--------------------------------|--------------------------------|
D|1-----------1---1-----------1---|4-----------4---4-----------4---|
A|--------------------------------|--------------------------------|
E|--------------------------------|--------------------------------|
 
G|--------------------------------|--------------------------------|
D|--------------------------------|2-----------2---2-----------2---|
A|2-----------2---2-----------2---|--------------------------------|
E|--------------------------------|--------------------------------|
 
G|--------------------------------|--------------------------------|
D|3-----------3---3-----------3---|--------------------------------|
A|--------------------------------|1-----------1---1-----------1---|
E|--------------------------------|--------------------------------|
 
G|--------------------------------|--------------------------------|
D|1-----------1---1-----------1---|--------------------------------|
A|--------------------------------|2-----------2---2-----------2---|
E|--------------------------------|--------------------------------|
 
G|--------------------------------|--------------------------------|
D|3-----------3---3-----------3---|--------------------------------|
A|--------------------------------|1-------1-------1---------------|
E|--------------------------------|------------------------4-------|

[Verse 2] 
G|--------------------------------|--------------------------------|
D|1-----------1---1-----------1---|4-----------4---4-----------4---|
A|--------------------------------|--------------------------------|
E|--------------------------------|--------------------------------|
 
G|--------------------------------|--------------------------------|
D|--------------------------------|3-----------3-------------------|
A|2-----------2---2-----------2---|----------------1-----------1---|
E|--------------------------------|--------------------------------|
 
G|--------------------------------|--------------------------------|
D|1-----------1---1-----------1---|4-----------4---4-----------4---|
A|--------------------------------|--------------------------------|
E|--------------------------------|--------------------------------|
 
G|--------------------------------|--------------------------------|
D|--------------------------------|3-----------3-------------------|
A|2-----------2---2-----------2---|----------------1-----------1---|
E|--------------------------------|--------------------------------|

[Chorus] 
G|--------------------------------|--------------------------------|
D|1-----------1---1-----------1---|4-----------4---4-----------4---|
A|--------------------------------|--------------------------------|
E|--------------------------------|--------------------------------|
 
G|--------------------------------|--------------------------------|
D|--------------------------------|2-----------2---2-----------2---|
A|2-----------2---2-----------2---|--------------------------------|
E|--------------------------------|--------------------------------|
 
G|--------------------------------|--------------------------------|
D|3-----------3---3-----------3---|--------------------------------|
A|--------------------------------|1-----------1---1-----------1---|
E|--------------------------------|--------------------------------|
 
G|--------------------------------|--------------------------------|
D|1-----------1---1-----------1---|--------------------------------|
A|--------------------------------|2-----------2---2-----------2---|
E|--------------------------------|--------------------------------|
 
G|--------------------------------|--------------------------------|
D|3-----------3---3-----------3---|--------------------------------|
A|--------------------------------|1-------1-------1---------------|
E|--------------------------------|------------------------4-------|

[Verse-Key Change] 
G|0-----------0---0-----------0---|3-----------3---3-----------3---|
D|--------------------------------|--------------------------------|
A|--------------------------------|--------------------------------|
E|--------------------------------|--------------------------------|
 
G|--------------------------------|2-----------2-------------------|
D|1-----------1---1-----------1---|----------------0-----------0---|
A|--------------------------------|--------------------------------|
E|--------------------------------|--------------------------------|
 
G|0-----------0---0-----------0---|3-----------3---3-----------3---|
D|--------------------------------|--------------------------------|
A|--------------------------------|--------------------------------|
E|--------------------------------|--------------------------------|
 
G|--------------------------------|2-----------2-------------------|
D|1-----------1---1-----------1---|----------------0-----------0---|
A|--------------------------------|--------------------------------|
E|--------------------------------|--------------------------------|

[Chorus] 
G|0-----------0---0-----------0---|3-----------3---3-----------3---|
D|--------------------------------|--------------------------------|
A|--------------------------------|--------------------------------|
E|--------------------------------|--------------------------------|
 
G|--------------------------------|1-----------1---1-----------1---|
D|1-----------1---1-----------1---|--------------------------------|
A|--------------------------------|--------------------------------|
E|--------------------------------|--------------------------------|
 
G|2-----------2---2-----------2---|--------------------------------|
D|--------------------------------|0-----------0---0-----------0---|
A|--------------------------------|--------------------------------|
E|--------------------------------|--------------------------------|
 
G|0-----------0---0-----------0---|--------------------------------|
D|------------------------0-------|0-------0-----------------------|
A|--------------------------------|--------------------------------|
E|--------------------------------|--------------------------------|

[Verse] 
G|0-----------0---0-----------0---|3-----------3---3-----------3---|
D|--------------------------------|--------------------------------|
A|--------------------------------|--------------------------------|
E|--------------------------------|--------------------------------|
 
G|--------------------------------|2-----------2-------------------|
D|1-----------1---1-----------1---|----------------0-----------0---|
A|--------------------------------|--------------------------------|
E|--------------------------------|--------------------------------|
 
G|0-----------0---0-----------0---|3-----------3---3-----------3---|
D|--------------------------------|--------------------------------|
A|--------------------------------|--------------------------------|
E|--------------------------------|--------------------------------|
 
G|--------------------------------|2-----------2-------------------|
D|1-----------1---1-----------1---|----------------0-----------0---|
A|--------------------------------|--------------------------------|
E|--------------------------------|--------------------------------|

[Chorus] 
G|0-----------0---0-----------0---|3-----------3---3-----------3---|
D|--------------------------------|--------------------------------|
A|--------------------------------|--------------------------------|
E|--------------------------------|--------------------------------|
 
G|--------------------------------|1-----------1---1-----------1---|
D|1-----------1---1-----------1---|--------------------------------|
A|--------------------------------|--------------------------------|
E|--------------------------------|--------------------------------|

G|2-----------2---2-----------2---|--------------------------------|
D|--------------------------------|0-----------0---0-----------0---|
A|--------------------------------|--------------------------------|
E|--------------------------------|--------------------------------|

[Outro] 
G|0-----------0---0-----------0---|--------------------------------|
D|--------------------------------|1-----------1---1-----------1---|
A|--------------------------------|--------------------------------| (x4)
E|--------------------------------|--------------------------------|

            
            
Suggest correction
Creating personal tab
Creating personal tab
You can edit any tab online and save it as your Personal.

You can edit, replace or remove any tab part or add personal notes – all changes will be seen only by you.

Personal tabs can be accessed anytime from any device, even offline.
Learn more »
Give kudos to tab author, rate the tab!
1 2 3 4 5
comments
print report bad tab
guest
You may want to rate the tab now too:
select rating
Wanna post a correction for this tab? Suggest correction