Oops, an error
Loading. Please wait.

La Escalera Tab

84 views 1 this week
no commentswrite comment
1 2 3 4 5
3 more votes to show rating
add to favorites
launch autoscroll
font size
0
reset
how to read this tab
guitar tuner
×
Best way to learn
"La Escalera"
Autoscroll
slow
fast
+/-
esc
set tempo
stop
Esta canción es re-bonita y facilita de tocar. La dificultad para
sacarla está en que la grabación tiene la guitarra un poco desafinada.
Las notas están bien, pero el arpegio puede tener algunas diferencias
que se pueden encontrar escuchando la canción, que se puede bajar
de 

Más abajo puse la letra con los acordes que pueden usar como guía
para la tablatura.

Parte 1

e||--------0------------------0--|
B||--0--2-----2-----2-----2------|
G||--------------4-----2---------|
D||------------------------------|
A||------------------------------|
E||------------------------------|

Parte 2


    C#m                 C#sus
e|--4-----------------|--------------------|
B|--------------------|--7-----------------|
G|--------6-----------|--------6-----------|
D|-----6-----6-----6--|-----6-----6-----6--|
A|--4-----------4-----|--4-----------4-----|
E|--------------------|--------------------|

    B      Bsus B
e|--------------------|-------------------|
B|--4--------5--4-----|--4----------------|
G|--------4--------4--|-----4-----4-------|
D|-----4--------------|--------4----------|
A|--2-----------2-----|--2-----------2----|
E|--------------------|-------------------|

(Parte 1)

A
Un millón de años yo he visto pasar
Junto a miles de colores que están frente a mí
Y a cientos de sonidos que vienen desde ti
Miedo me da un poco que me causen temblor
Miedo me da un poco que me causen temblor
Pero de a poco entraron hasta mí
Y se acomodaron para no salir

(Parte 2)

C#m      C#sus     B  (Bsus) B
Hace tiempo que lo sé
No me quiero separar
De años, colores y sonidos
Que todos vienen de ti
Suggest correction
Give kudos to tab author, rate the tab!
1 2 3 4 5
comments
print report bad tab
guest
You may want to rate the tab now too:
select rating
Wanna post a correction for this tab? Suggest correction