Oops, an error
Loading. Please wait.

La Noche Tab

by Gepe
61 views 1 this week
no commentswrite comment
1 2 3 4 5
3 more votes to show rating
add to favorites
launch autoscroll
font size
0
reset
how to read this tab
guitar tuner
Autoscroll
slow
fast
+/-
esc
set tempo
stop
Lo más difícil de la canción es el arpegio, aunque casi no cambia.
La afinación de la guitarra en el disco está medio semitono más
arriba de lo normal. Entendiendo los nombres de los acordes casi
no se necesita revisar el tab, a excepción de los números entre
paréntesis.


    Bb
e|--------------------------------------|
B|--6--------6--------6--------6--------|
G|--------------------------------------|
D|-----8--------8--------8--------8-----|
A|--------8--------8--------8--------8--|
E|--6-----6-----6-----6-----6-----6-----|


   Bb6
|--------------------------------------|
|--8--------8--------8--------8--------|
|--------------------------------------|
|-----8--------8--------8--------8-----|
|--------8--------8--------8--------8--|
|--6-----6-----6-----6-----6-----6-----|

   Bb7
|------------------------------------------|
|--10--------10--------10--------10--------|
|------------------------------------------|
|------8---------8---------8---------8-----|
|---------8---------8---------8---------8--|
|---6-----6------6------6-----6------6-----|

   (1)
|------------10--------8------------------|
|--10---------------------------10--------|
|-----------------------------------------|
|------8---------8--------8---------8-----|
|---------8---------8--------8---------8--|
|---6-----6------6-----6-----6------6-----|

  (2)
|---------6--------------------------|----------8--------6---------------|
|6-----------------10--------8-------|-8--------------------------8------|
|------------------------------------|-----------------------------------|
|---8--------8---------8--------8----|----8--------8--------8--------8---|
|------8--------8---------8--------8-|-------8--------8--------8--------8|
|6-----6-----6-----6------6-----6----|-6-----6-----6-----6-----6-----6---|


  (3)
|------------------------------------|------------------------------------|
|-6--------6--------6--------6-------|-6--------6--------6--------6-------|
|----0--------0--------0--------0----|----0--------0--------0--------0----|
|-------8--------8--------8--------8-|-------8--------8--------8--------8-|
|------------------------------------|------------------------------------|
|-6-----6-----6-----6-----6-----6----|-4-----4-----4-----4-----4-----4----|

|--------------------------------------|
|--6--------6--------6--------6--------|
|-----0--------0--------0--------0-----|
|--------8--------8--------8--------8--|
|--------------------------------------|
|--6-----6-----6-----6-----6-----6-----|

   Ab
|--------------------------------------|
|--4--------4--------4--------4--------|
|--------------------------------------|
|-----6--------6--------6--------6-----|
|--------6--------6--------6--------6--|
|--4-----4-----4-----4-----4-----4-----|

  Ab/Bb
|--------------------------------------|
|--4--------4--------4--------4--------|
|--------------------------------------|
|-----6--------6--------6--------6-----|
|--------6--------6--------6--------6--|
|--6-----6-----6-----6-----6-----6-----|

Bb  Bb
(Intro)

Bb                  Bb6
Niña del sol, luna, por qué será
Bb                 Bb6
búscalo así, hacia arriba
Bb                   Bb6
desde el ojo sale un rayo azul
Bb                    Bb6
que se hace amigo del celeste


Bb7                Bb6
  Y de a poco se cubre el manto
Bb7             Bb6
  de lunares amarillos
  Bb                   Bb6
y blancos que se hacen distinguir
Bb                     Bb6
con su brillo desde el fondo


Bb                 Bb6
Noche nació, luna, llámalo así
Bb                       Bb6
se hace figura en mis desvelos

Bb7   Bb6 (1) Bb6

Bb             Bb6
  Y no puedo pegar los ojos
Bb             Bb6
  desde un día hasta el otro
Bb            Bb6
  en la noche el mensaje
Bb                 Bb6          Bb7
  me hacia cambiar lo que traje aquí


   Bb6
Sé bien
     Bb7              Bb6
la noche se va en un riel

(2)

Bb  (3)  Ab  Ab/Bb  Ab  Ab/Bb


Bb     Bb6
La larará
Bb     Bb6
Larará
Bb  Bb
Laaa


Bb7                Bb6
  Y de a poco se cubre el manto
Bb7             Bb6   (silencio)
  de lunares amarillos
  Bb                   Bb6
y blancos que se hacen distinguir
Bb                     Bb6
con su brillo desde el fondo


Bb                 Bb6
Noche nació, luna, llámalo así
Bb                       Bb6    (Bb)
se hace figura en mis desvelos
Suggest correction
Give kudos to tab author, rate the tab!
1 2 3 4 5
comments
print report bad tab
guest
Wanna post a correction for this tab? Suggest correction