Oops, an error
Loading. Please wait.

No Shows Chords

version 1
version 1

Whole song

6,367 views 3 this week
5 commentsread comments
1 2 3 4 5
x 6
add to favorites
launch autoscroll
font size
0
reset
transpose
0
reset
simplify chords
display chords
guitar tuner
Autoscroll
slow
fast
+/-
esc
set tempo
stop
Help us to improve Ultimate-Guitar.com Take our survey!
×
Author
I am aware that this tab is no entirely correct. I experimented with some things that I think
sound good, e.g. that tab section in the intro. They may be completely wrong, but I just 
wanted to give people some different ideas, rather than playing the song exactly as it sounds
I was trying to mix things up a bit.

~~~~~~~~

Standard tuning
No Capo



[Intro]
E                                 E7

e--------2---2-----0--0--0-----x2|--------2---2-----0--0--0-----x2|
B--------0---0-----0--0--0-------|--------0---0-----0--0--0-------|
G--------1---1-----1--1--1-------|--------1---1-----1--1--1-------|   X4
D--------2---2-----2--2--2-------|--------2---2-----2--2--2-------|
A--------2---2-----2--2--2-------|--0--0--0---0-----0--0--0-------|
E--0--0--0---0-----0--0--0-------|--------0---0-----0--0--0-------|



[Verse]

E                                                      E7
Been weeks I been living and your smiles are giving me all types of treble
     E                                                 E7
Weak knees I been given and those nights are making me star-struck and metal


[Chorus]
E
Stay free
B     A
Don’t go
A                 B
Cuz we don’t need no


[Verse]
E                                            E7
Try to be living as your vice and can you be my type?
    E                                            E7
Cuz we need to be given a good life and can I be your type of metal?


[Chorus]
E
Stay free
B     A
Don’t go
A                 B  E
Cuz we don’t need no shows

         A    B  E
We don’t need no shows
         A    B  E
We don’t need no shows


[Verse]
E                                       E7
Pay for the devil a plug to a pedal I’m your type
E                                                      E7
Weak knees from the level I’m sick from the treble I’m your type of metal


[Chorus]
     A     B     A
Weak knees don’t go
             A    B  E
Cuz we don’t need no shows


[Solo] 

14 bars


[Bridge] 
(Only the bass plays in this bit, but if you want to play it on guitar it goes like this)

She’s sweet as battery, man I got nothin, You kiss an enemy’s hands, I got nothing
e---------------------------------------|-----------------------------------------|
B---------------------------------------|-----------------------------------------|
G---------------------------------------|-----------------------------------------|
D---------------------------------------|---------------------------1--X8---------|
A---------------------------------------|-----------------------------------------|
E-0--X16--------------------------------|-5--X8-----------------------------------|


We got an animal band and that’s something, It’s not love if it’s just fucking
e---------------------------------------|-----------------------------------------|
B---------------------------------------|-----------------------------------------|
G---------------------------------------|-----------------------------------------|
D---------------------------------------|---------------------------1--X8---------|
A---------------------------------------|-----------------------------------------|
E-0--X16--------------------------------|-5--X8-----------------------------------|


E, E, A, B x4

         
         A    B  C#m
We don’t need no shows,
         A    B  C#m
We don’t need no shows,
         A    B  C#m
We don’t need no shows,
         A    B  E
We don’t need no shows.

Suggest correction
comments
print report bad tab
5 comments total. Showing first comments.
+2 reply
leviholtbratlan 10 Aug 20, 2014 03:33 PM

Lack of accuracy. Clearly wrong.

0 reply
molClark 178 Aug 21, 2014 04:25 AM

I am aware that some of it is wrong- I just tried to get a good enough amount of it right so that other people are able to play it.

+1 reply
blackstationsix 44 Aug 22, 2014 12:36 AM

Lack of accuracy.

guest
You may want to rate the tab now too:
select rating
Wanna post a correction for this tab? Suggest correction