Oops, an error
Loading. Please wait.

Romance Tab

25,320 views 126 this week
no commentswrite comment
1 2 3 4 5
x 6
add to favorites
launch autoscroll
font size
0
reset
how to read this tab
guitar tuner
Autoscroll
slow
fast
+/-
esc
set tempo
stop
Help us to improve Ultimate-Guitar.com Take our survey!
×
Author
Difficulty
advanced
Tab by: Gerardo Torres

This a romantic classical sad song meant to be played with feeling and at any speed you like.

Let all notes ring.

                            Romance
e|--7------7------7------|--7------5------3------|--3------2------0------|
B|----0------0------0----|----0------0------0----|----0------0------0----|
G|------0------0------0--|------0------0------0--|------0------0------0--|
D|-----------------------|-----------------------|-----------------------|
A|-----------------------|-----------------------|-----------------------|
E|--0--------------------|--0--------------------|--0--------------------|

e|--0------3------7------|--12-----12-----12-----|--12-----10-----8------|
B|----0------0------0----|----0------0------0----|----0-------0-----0----|
G|------0------0------0--|------0------0------0--|------0-------0-----0--|
D|-----------------------|-----------------------|-----------------------|
A|-----------------------|-----------------------|-----------------------|
E|--0--------------------|--0--------------------|--0--------------------|

e|--8------7------5------|--5------7------8------|--7------8------7------|
B|----5------5------5----|----5------5------5----|----7------7------7----|
G|------5------5------5--|------5------5------5--|------8------8------8--|
D|-----------------------|-----------------------|-----------------------|
A|--0--------------------|--0--------------------|-----------------------|
E|-----------------------|-----------------------|--7--------------------|

e|--11-----8------7------|--7------5------3------|--3------2------0--------|
B|----7------7------7----|----0------0------0----|----0------0------0------|
G|------8------8------8--|------0------0------0--|------0------0------0----|
D|-----------------------|-----------------------|-------------------------|
A|-----------------------|-----------------------|-------------------------|
E|--7--------------------|--0--------------------|--0----------------------|

e|--2------2------2------|--2------3------2------|--0------0------0------|
B|----0------0------0----|----0------0------0----|----0------0------0----|
G|------2------2------2--|------2------2------2--|------0------0------0--|
D|-----------------------|--2--------------------|--2--------------------|
A|--2--------------------|-----------------------|---------2-------------|
E|-----------------------|-----------------------|----------------3------|

e|-0====================-|-----------------------|
B|-0====================-|--------0----7---------|
G|-0====================-|-----------------------|
D|-----------------------|-----------------------|
A|-----------------------|-----------------------|
E|-0====================-|-----------------------|

e|--7------7------7------|--7------5------3------|--3------2------0------|
B|----0------0------0----|----0------0------0----|----0------0------0----|
G|------0------0------0--|------0------0------0--|------0------0------0--|
D|-----------------------|-----------------------|-----------------------|
A|-----------------------|-----------------------|-----------------------|
E|--0--------------------|--0--------------------|--0--------------------|

e|--0------3------7------|--12-----12-----12-----|--12-----10-----8------|
B|----0------0------0----|----0------0------0----|----0-------0-----0----|
G|------0------0------0--|------0------0------0--|------0-------0-----0--|
D|-----------------------|-----------------------|-----------------------|
A|-----------------------|-----------------------|-----------------------|
E|--0--------------------|--0--------------------|--0--------------------|

e|--8------7------5------|--5------7------8------|--7------8------7------|
B|----5------5------5----|----5------5------5----|----7------7------7----|
G|------5------5------5--|------5------5------5--|------8------8------8--|
D|-----------------------|-----------------------|-----------------------|
A|--0--------------------|--0--------------------|-----------------------|
E|-----------------------|-----------------------|--7--------------------|

e|--11-----8------7------|--7------5------3------|--3------2------0--------|
B|----7------7------7----|----0------0------0----|----0------0------0------|
G|------8------8------8--|------0------0------0--|------0------0------0----|
D|-----------------------|-----------------------|-------------------------|
A|-----------------------|-----------------------|-------------------------|
E|--7--------------------|--0--------------------|--0----------------------|

e|--2------2------2------|--2------3------2------|--0------0------0------|
B|----0------0------0----|----0------0------0----|----0------0------0----|
G|------2------2------2--|------2------2------2--|------0------0------0--|
D|-----------------------|--2--------------------|--2--------------------|
A|--2--------------------|-----------------------|---------2-------------|
E|-----------------------|-----------------------|----------------3------|

e|-0====================-|-----------------------|
B|-0====================-|---------0----0--------|
G|-0====================-|-----------------------|
D|-----------------------|-----------------------|
A|-----------------------|-----------------------|
E|-0====================-|-----------------------|


[Part B]

e|--4------4------4------|--4------2------0------|-----------------------|
B|----0------0------0----|----0------0------0----|--5------4------4------|
G|------1------1------1--|------1------1------1--|----2------2------2----|
D|-----------------------|-----------------------|------4------4------4--|
A|-----------------------|-----------------------|-----------------------|
E|--0--------------------|--0--------------------|--2--------------------|

e|-----------------------|--9------9------9------|--9------11-----9------|
B|--4------2------4------|----7------7------7----|----7-------7-----7----|
G|----2------2------2----|------8------8------8--|------8-------8-----8--|
D|------4------4------4--|-----------------------|-----------------------|
A|-----------------------|-----------------------|-----------------------|
E|--2--------------------|--7--------------------|--7--------------------|

e|--9------7------7------|--7------9------11-----|-12-----12-----12------|
B|----9------9------9----|----9------9------9----|----9------9------9----|
G|------9------9------9--|------9------9------9--|------9------9------9--|
D|-----------------------|-----------------------|-----------------------|
A|-----------------------|-----------------------|-----------------------|
E|--0--------------------|--0--------------------|--0--------------------|

e|-12-----11-----10------|--9------9------9------|--9------7------5------|
B|----9------9------9----|----5------5------5----|----5------5------5----|
G|------9------9------9--|------6------6------6--|------6------6------6--|
D|-----------------------|-----------------------|-----------------------|
A|-----------------------|--0--------------------|--0--------------------|
E|--0--------------------|-----------------------|-----------------------|

e|--4------4------4------|--4------5------2------|--0------0------0------|
B|----0------0------0----|----4------4------4----|----0------0------0----|
G|------1------1------1--|------2------2------2--|------1------1------1--|
D|-----------------------|-----------------------|--2--------------------|
A|-----------------------|-----------------------|---------2-------------|
E|--0--------------------|--2--------------------|----------------4------|

e|-0====================-|-----------------------|
B|-0====================-|-------0----0----------|
G|-1====================-|-----------------------|
D|-----------------------|-----------------------|
A|-----------------------|-----------------------|
E|-0====================-|-----------------------|

e|--4------4------4------|--4------2------0------|-----------------------|
B|----0------0------0----|----0------0------0----|--5------4------4------|
G|------1------1------1--|------1------1------1--|----2------2------2----|
D|-----------------------|-----------------------|------4------4------4--|
A|-----------------------|-----------------------|-----------------------|
E|--0--------------------|--0--------------------|--2--------------------|

e|-----------------------|--9------9------9------|--9------11-----9------|
B|--4------2------4------|----7------7------7----|----7-------7-----7----|
G|----2------2------2----|------8------8------8--|------8-------8-----8--|
D|------4------4------4--|-----------------------|-----------------------|
A|-----------------------|-----------------------|-----------------------|
E|--2--------------------|--7--------------------|--7--------------------|

e|--9------7------7------|--7------9------11-----|-12-----12-----12------|
B|----9------9------9----|----9------9------9----|----9------9------9----|
G|------9------9------9--|------9------9------9--|------9------9------9--|
D|-----------------------|-----------------------|-----------------------|
A|-----------------------|-----------------------|-----------------------|
E|--0--------------------|--0--------------------|--0--------------------|

e|-12-----11-----10------|--9------9------9------|--9------7------5------|
B|----9------9------9----|----5------5------5----|----5------5------5----|
G|------9------9------9--|------6------6------6--|------6------6------6--|
D|-----------------------|-----------------------|-----------------------|
A|-----------------------|--0--------------------|--0--------------------|
E|--0--------------------|-----------------------|-----------------------|

e|--4------4------4------|--4------5------2------|--0------0------0------|
B|----0------0------0----|----4------4------4----|----0------0------0----|
G|------1------1------1--|------2------2------2--|------1------1------1--|
D|-----------------------|-----------------------|--2--------------------|
A|-----------------------|-----------------------|---------2-------------|
E|--0--------------------|--2--------------------|----------------4------|

e|-0====================-|-----------------------|
B|-0====================-|----------0-7----------|
G|-1====================-|-----------------------|
D|-----------------------|-----------------------|
A|-----------------------|-----------------------|
E|-0====================-|-----------------------|

e|--7------7------7------|--7------5------3------|--3------2------0------|
B|----0------0------0----|----0------0------0----|----0------0------0----|
G|------0------0------0--|------0------0------0--|------0------0------0--|
D|-----------------------|-----------------------|-----------------------|
A|-----------------------|-----------------------|-----------------------|
E|--0--------------------|--0--------------------|--0--------------------|

e|--0------3------7------|--12-----12-----12-----|--12-----10-----8------|
B|----0------0------0----|----0------0------0----|----0-------0-----0----|
G|------0------0------0--|------0------0------0--|------0-------0-----0--|
D|-----------------------|-----------------------|-----------------------|
A|-----------------------|-----------------------|-----------------------|
E|--0--------------------|--0--------------------|--0--------------------|

e|--8------7------5------|--5------7------8------|--7------8------7------|
B|----5------5------5----|----5------5------5----|----7------7------7----|
G|------5------5------5--|------5------5------5--|------8------8------8--|
D|-----------------------|-----------------------|-----------------------|
A|--0--------------------|--0--------------------|-----------------------|
E|-----------------------|-----------------------|--7--------------------|

e|--11----8------7-------|--7------5------3------|--3------2------0------|
B|----7------7------7----|----0------0------0----|----0------0------0----|
G|------8------8------8--|------0------0------0--|------0------0------0--|
D|-----------------------|-----------------------|-----------------------|
A|-----------------------|-----------------------|-----------------------|
E|--7--------------------|--0--------------------|--0--------------------|

e|--2------2------2------|--2------3------2------|--0------0------0------|
B|----0------0------0----|----0------0------0----|----0------0------0----|
G|------2------2------2--|------2------2------2--|------0------0------0--|
D|-----------------------|--2--------------------|--2--------------------|
A|--2--------------------|-----------------------|---------2-------------|
E|-----------------------|-----------------------|----------------3------|

e|-0====================-|
B|-0====================-|
G|-0====================-|
D|-----------------------|
A|-----------------------|
E|-0====================-|
Suggest correction
comments
print report bad tab
guest
You may want to rate the tab now too:
select rating
Wanna post a correction for this tab? Suggest correction