Oops, an error
Loading. Please wait.

Nazi Muerto Bass

16 views 1 this week
no commentswrite comment
1 2 3 4 5
3 more votes to show rating
add to favorites
×
Save as Personal and add changes to this tab that will be seen only by you. Learn more ›
×
You can save this tab as Personal to edit and correct it or add notes. All changes will be seen only by you. Learn more »
save as personal
new!
launch autoscroll
font size
0
reset
guitar tuner
Autoscroll
slow
fast
+/-
esc
set tempo
stop
ESTA ES LA PARTE DE: contra la igualdad del color
contra la violencia sin razon......
|------------------------------------------------|
|-----------------0000000------------------------|
|---------3333333----------11111111111-----------|
|-1111111----------------------------------------|
                                                 |X2
                                                 |
|------------------------------------------------|
|------------------------------------------------|
|---------3333333--11111111111-------------------|
|-1111111----------------------------------------|


ESTA ES LA PARTE DE: un aguila vuela por el cielo....

|-----------------|
|-----------------|
|-55---8----------|X2
|--------8--------|


y aki la ultima parte al ke le e llamado puente, que es con lo ke empieza
la cancion la guitarra, que el bajo no lo hace la primera vez pero a lo
largo de la cancion si ke lo hace.


|------------------|
|------------------|X2
|-5---5--8---8-----|
|---6------8-------|

ESTO ES TODA LA ESTRUCTURA DESPUES DE ESTO SE REPITE TODO DE NUEVO.


PUES AHI OS DEJO EL TEMITA K COMO VEIS ES MU FACIL DE TOCAR Y APARTE
TA XULISIMO, Y ESTA TOTALMENTE BIEN OS LO PUEDO ASEGURAR, PARA ALGUNA DUDA
XQ NO HAYA SIDO CLARO AHI OS DEJO MI MAIL: Evaristo_el_rey_de_la_baraja@
Suggest correction
Give kudos to tab author, rate the tab!
1 2 3 4 5
comments
print report bad tab
guest
Wanna post a correction for this tab? Suggest correction