Oops, an error
Loading. Please wait.

Poderoso Dios Tab

17 views 3 this week
no commentswrite comment
1 2 3 4 5
3 more votes to show rating
add to favorites
launch autoscroll
font size
0
reset
how to read this tab
guitar tuner
Autoscroll
slow
fast
+/-
esc
set tempo
stop
Help us to improve Ultimate-Guitar.com Take our survey!
×
urbina javier
**********************************************************************
 Introduccion:

            [C ]            [G ]        [Dm]   [F]   [G]
 E-----------------------------------------------------------
 B--5-5-6h-8-8-5---5-5-6h-8h-10-8--8-6-5-6h-8-8---5-6-5------
 G----------------------------------------------5-------5h-7-
 D-----------------------------------------------------------
 A-----------------------------------------------------------
 E-----------------------------------------------------------


 Solo Minuto 4:18

 E--------------------8-8h-10-10h-12h--17-15------------------
 B--------12-12-13-10------------------------15-13-13-12-8----
 G--12-12-----------------------------------------------------
 D------------------------------------------------------------

 4:28

 E--10-12h-13-12-13h-15----15-15h-18---15-----------1515------
 B----------------------12-----------16---15--12-13-----------
 G------------------------------------------------------------
 D------------------------------------------------------------

 4:40

                              Mi Alma clama por Tí...
 E----------------------------12^-10--------------------------
 B--13-12h-10h-12-13-15--------------12-10--------------------
 G------------------------------------------------------------
 D------------------------------------------------------------
El solo haganlo lo más ligado posible... (h=ligado) (^=Sust)

Espero que les sirva esta colaboracion, cualquier error que encuentren
no duden en contactarme: 

Un saludo a la Iglesia Crd Temuco y a mis partners Jose, Diego, Nestor,
Freddy!

Que el Señor les bendiga!
Suggest correction
Give kudos to tab author, rate the tab!
1 2 3 4 5
comments
print report bad tab
guest
You may want to rate the tab now too:
select rating
Wanna post a correction for this tab? Suggest correction