Oops, an error
Loading. Please wait.

Tu Eres Digno De Gloria Tab

120 views 3 this week
no commentswrite comment
1 2 3 4 5
3 more votes to show rating
add to favorites
launch autoscroll
font size
0
reset
how to read this tab
guitar tuner
Autoscroll
slow
fast
+/-
esc
set tempo
stop
Help us to improve Ultimate-Guitar.com Take our survey!
×
Este es el tab del solo ;)

3:03
e|-------------------12----15b17-15------------------------------|
B|------13-15b-13h15---------------------------------------------|
G|-12/14---------------------------------------------------------|
D|---------------------------------------------------------------|
A|---------------------------------------------------------------|
E|---------------------------------------------------------------|

3:09
e|-----20----19----17----15---12---10---8-7-8-7-5----------------|
B|---------------------------------------------------------------|
G|-/17----16----14----12----9----7----5--------------------------|
A|---------------------------------------------------------------|
E|---------------------------------------------------------------|

Esta parte es rapida
3:13
e|-8-5-----------------------------------------------------------|
B|-----8-5----8-5------------------------------------------------|
G|---------7b-----7b-7-5-----7/9-7-7----------------------------|
D|-----------------------7-5-------------------------------------|
A|---------------------------------------------------------------|
E|---------------------------------------------------------------|

3:16
e|--------------------15-17---------17-19-20p19p17-20b--20b22-20v|
B|------------13-15-17--------15/17------------------------------|
G|------12/14----------------------------------------------------|
D|12/14----------------------------------------------------------|
A|---------------------------------------------------------------|
E|---------------------------------------------------------------|

Espero lo puedan sacar, saludos de la Iglesia Central Asambleas de Dios
 en `Perez Zeledòn, Costa Rica
Suggest correction
Give kudos to tab author, rate the tab!
1 2 3 4 5
comments
print report bad tab
guest
You may want to rate the tab now too:
select rating
Wanna post a correction for this tab? Suggest correction