Oops, an error
Loading. Please wait.

Ven A Este Lugar Tab

version 2
version 2

Whole song

175 views 1 this week
no commentswrite comment
1 2 3 4 5
3 more votes to show rating
add to favorites
launch autoscroll
font size
0
reset
how to read this tab
guitar tuner
Autoscroll
slow
fast
+/-
esc
set tempo
stop
Help us to improve Ultimate-Guitar.com Take our survey!
×
INTRO:

1/--------------------------------------------------/
2/------9-------------------9s12-12s14-12---12-7---/
3/-----9-9--9s11-9s11-11pf-9---------------11------/
4/-7s9--------------------------------------------/

          E          B
Tu que estás sentado
            C#m   A
Sobre querubines
          E              B
Tu que estás en tu trono
                 C#m     A
En medio de serafines Jesús

       E                 B
Tu que eres aclamado por ángeles
            C#m     A
Ven a este lugar


          E          B
Tu que estas sentado
                   C#m    A
Sobre un trono de gloria
          E               B
Tu que estás en el trono
                       C#m  A
De la alabanza de tu pueblo

       E                       B
Tu que eres aclamado Por tu iglesia
            C#m  A
Ven a este lugar


Coro

              E   B
Ven a este lugar
             C#m  A
Ven a este lugar
              E/G#   B
Ven a este lugar
              C#m   A
Llena hoy mi vida señor


          E          B
Tú que estás sentado
                    C#m  A
Sobre un trono de gloria
          E               B
Tú que estás en el trono
                       C#m  A
De la alabanza de tu pueblo

       E                       B
Tu que eres aclamado por tu iglesia
              C#m  A
Llena este lugar


Coro:

              E   B
Ven a este lugar
             C#m  A
Ven a este lugar
              E   B
Ven a este lugar
              C#m   A
Llena hoy mi vida señor

              E   B
Llena este lugar
             C#m  A
Llena este lugar
             E/G#   B
Llena este lugar
             C#m   A
Llena hoy mi vida señor

Solo de Guitarra:

1/---------------------------------------------------------------
2/-------9-------9-10-9--------9-----------9-------9-10s14-12---
3/---9-11----9-11-------11-9-11-11----9-11----9-11------------11
4/---------11-------------------------------11------------------


1/-----12-11--------------
2/--12-------12-----------
3/--------------11-9-8----
4/------------------------

1/--------16--------16-17-16--------------------21--
2/--17-19------17-19----------19-17-19-16-19--------
3/----------18-------------------------------18-----
4/--------------------------------------------------


1/-19-17-16-17-16---16----------------------------------------------
2/----------------19---17-19-17-16-19-17-16-------------------------
3/------------------------------------------18-16-15--16-15---------
4/--------------------------------------------------18-----18-16-15-


1/---------------------------------------------/-/
2/--------------------------------------------/-/
3/--------------------------------------------/-/
4/---18-16-15-18-16-15--16-15-----15----------/-/
5/--------------------18-----18-16--18-16-15--/-/
6/--------------------------------------------/-/


Aqui la cancion sube un semitono:

              F#   C#
Ven a este lugar
             D#m   B
Ven a este lugar
              F#   C#
Ven a este lugar
             D#m   B
Llena hoy mi vida señor

              F#   C#
Llena este lugar
             D#m   B
Llena este lugar
              F#   C#
Llena este lugar
             D#m   B
Llena hoy mi vida señor


Final:

F#          C#           C#
  Yo quiero más de ti señor
             B          F#
  Yo quiero mas de ese pan
                D#m  C#     B
  Llena hoy mi vida      señor


S: Slide
PF: Pull off


Bueno solo hize unas modificaciones en el intro,
y algunas tambien en el solo, en el solo pueden meter
la distor, con un compresor sutainer, y un delay al 54%,
asi es como lo uso yo, Alguna duda aqui esta mi correo :D
juan_72_13@ Dios los Bendiga, Iglesia DEA Chihuahua.
Suggest correction
Give kudos to tab author, rate the tab!
1 2 3 4 5
comments
print report bad tab
guest
You may want to rate the tab now too:
select rating
Wanna post a correction for this tab? Suggest correction