Oops, an error
Loading. Please wait.

Right Down The Line bass

version 2
version 2

Whole song

Interactive

334 views 15 this week
3 commentsread comments
1 2 3 4 5
3 more votes to show rating
add to favorites
×
Save as Personal and add changes to this tab that will be seen only by you. Learn more ›
×
You can save this tab as Personal to edit and correct it or add notes. All changes will be seen only by you. Learn more »
launch autoscroll
font size
0
reset
guitar tuner
edit
Autoscroll
slow
fast
+/-
esc
set tempo
stop
Author
Difficulty
Gerry Rafferty
Right Down The Line
(Key: Dm – Tempo: 128 bpm)


Intro:    |Dm  |C  |Am  |F  |-(x3)   C  |G  |Am  G ||F   |F   ||-
G|--------7------|--------5------|---------------|----------------|
D|*----------7r-7|-----------5r-5|--------7------|--------3-------|
A|*-5-5r---------|--3-3r---------|-----------7r-7|-----------3r-3-| X3
E|---------------|---------------|--5-5r---------|--1-1r----------|

                                                    X2
G|--------5------|---------------|---------------||---------------|-|
D|-----------5r-5|--------5-----5|---------------||--------3------|-|
A|--3-3r---------|-----------5r--|---------------||-----------3r-3|-|
E|---------------|--3-3r---------|---5-5---3-3---||-1-1-----------|-|


Verse 1: 00:31 (play x3)
G|--------7------|--------5------|---------------|----------------|
D|*----------7r-7|-----------5r-5|--------7------|--------3-------|
A|*-5-5r---------|--3-3r---------|-----------7r-7|-----------3r-3-| X3
E|---------------|---------------|--5-5r---------|--1-1r----------|
Dm               C             Am                           F
      You know I need your love   You've got that hold over me
Dm               C             Am                          F
       Long as I got your love   You know that I'll never leave
Dm                      C               Am                 F
   When I wanted you to share my life I had no doubt in my mind


 Chorus: 00:54                                      X2
G|--------5------|---------------|---------------||---------------|-|
D|-----------5r-5|--------5-----5|---------------||--------3------|-|
A|--3-3r---------|-----------5r--|---------------||-----------3r-3|-|
E|---------------|--3-3r---------|---5-5---3-3---||-1-1-----------|-|
              C   G      Am    G        F
And it's been you Woman Right down the line


Verse 2: 01:04 (play x3)
G|--------7------|--------5------|---------------|----------------|
D|*----------7r-7|-----------5r-5|--------7------|--------3-------|
A|*-5-5r---------|--3-3r---------|-----------7r-7|-----------3r-3-| X3
E|---------------|---------------|--5-5r---------|--1-1r----------|
Dm                    C             Am               F
  I know how much I lean on you        Only you can see
Dm                     C             Am                     F
   The changes that I've been through   Have left a mark on me
Dm                             C           Am                           F
 You've been as constant as a northern star  The brightest light that shines


Chorus: 01:25                                       X2
G|--------5------|---------------|---------------||---------------|-|
D|-----------5r-5|--------5-----5|---------------||--------3------|-|
A|--3-3r---------|-----------5r--|---------------||-----------3r-3|-|
E|---------------|--3-3r---------|---5-5---3-3---||-1-1-----------|-|
              C   G      Am    G        F
And it's been you Woman Right down the line


Bridge: 01:35
G|------------|------------|-------------|
D|*-----7-----|------------|-------------|
A|*-5r-----5--|------9-----|------5------|
E|------------|--7r-----7--|--3r-----3---|
D              Bm          G
I just want to say this is my way           X2
G|------------|------------|------------||------7-----|-|
D|------9-----|------------|------------||---------7r-|-|
A|--7r-----7--|------7-----|------3-----||--5r--------|-|
E|------------|--5r-----5--|--1r-----1--||------------|-|
   E           A                  F           Dm (x2)
Of telling you everything I could never Say before
...
G|------------|-------------|
D|------------|-------------|
A|------9-----|------5------|
E|--7r-----7--|--3r-----3---|
Bm              G
   Yeah this is my way
G|------------|------------|------------||--------|
D|------9-----|------------|------------||--------|
A|--7r-----7--|------7-----|------3-----||-(5)>---|
E|------------|--5r-----5--|--1r-----1--||--------|
   E                A             F                  (Dm)>
Of telling you that every day I'm loving you so much more...


Verse 2: 02:00 (play x3)
G|--------7------|--------5------|---------------|----------------|
D|-----------7r-7|-----------5r-5|--------7------|--------3-------|
A|>(5)-5r--------|--3-3r---------|-----------7r-7|-----------3r-3-| X3
E|---------------|---------------|--5-5r---------|--1-1r----------|
(Dm)            C           Am                      F
  'Cause you believed in me    Through my darkest night
Dm                         C        Am                           F
  Put something better inside of me    You brought me into the light
Dm                      C           Am                   F
  Threw away all those crazy dreams    I put them all behind


  Chorus:                                           X2
G|--------5------|---------------|---------------||---------------|-|
D|-----------5r-5|--------5-----5|---------------||--------3------|-|
A|--3-3r---------|-----------5r--|---------------||-----------3r-3|-|
E|---------------|--3-3r---------|---5-5---3-3---||-1-1-----------|-|
           C   G      Am    G        F
And it was you Woman Right down the line


Solo: 02:32    Dm  |C  |Am  |F  |- (play x3)
G|--------7------|--------5------|---------------|----------------|
D|*----------7r-7|-----------5r-5|--------7------|--------3-------|
A|*-5-5r---------|--3-3r---------|-----------7r-7|-----------3r-3-| X3  (verse)
E|---------------|---------------|--5-5r---------|--1-1r----------|


(solo second part)  C  |G  |Am G ||F   |F ||-       X2
G|--------5------|---------------|---------------||---------------|-|
D|-----------5r-5|--------5------|---------------||--------3------|-|
A|--3-3r---------|-----------5r-5|---------------||-----------3r-3|-|   (chorus)
E|---------------|--3-3r---------|---5-5---3-3---||-1-1-----------|-|


Bridge: 03:03
G|------------|------------|-------------|
D|*-----7-----|------------|-------------|
A|*-5r-----5--|------9-----|------5------|
E|------------|--7r-----7--|--3r-----3---|
D              Bm          G
I just want to say this is my way           X2
G|------------|------------|------------||------7-----|-|
D|------9-----|------------|------------||---------7r-|-|
A|--7r-----7--|------7-----|------3-----||--5r--------|-|
E|------------|--5r-----5--|--1r-----1--||------------|-|
   E           A                  F           Dm (x2)
Of telling you everything I could never Say before
...
G|------------|-------------|
D|------------|-------------|
A|------9-----|------5------|
E|--7r-----7--|--3r-----3---|
Bm              G
   Yeah this is my way
G|------------|------------|------------||--------|
D|------9-----|------------|------------||--------|
A|--7r-----7--|------7-----|------3-----||-(5)>---|
E|------------|--5r-----5--|--1r-----1--||--------|
   E                A             F                  (Dm)>
Of telling you that every day I'm loving you so much more...


Verse 3: 03:29 (play x3)
G|--------7------|--------5------|---------------|----------------|
D|-----------7r-7|-----------5r-5|--------7------|--------3-------|
A|>-5-5r---------|--3-3r---------|-----------7r-7|-----------3r-3-| X3
E|---------------|---------------|--5-5r---------|--1-1r----------|
(Dm )          C           Am                 F
  If I should doubt myself    If I'm losing ground
Dm                C            Am                    F
  I won't turn to someone else   They'd only let me down
Dm                      C            Am                       F
  When I wanted you to share my life   I had no doubt in my mind


  Chorus:                                           X2
G|--------5------|---------------|---------------||---------------|-|
D|-----------5r-5|--------5-----5|---------------||--------3------|-|
A|--3-3r---------|-----------5r--|---------------||-----------3r-3|-|
E|---------------|--3-3r---------|---5-5---3-3---||-1-1-----------|-|
              C   G      Am    G        F
And it's been you Woman Right down the line


Outro: 04:00 Play Bridge (x1) fading out...

D   Bm   G  -  E   A   F   Dm - Dm  Bm   G  -  E   A   F  Dm

oohoohooh...

            
            
Suggest correction
Creating personal tab
Creating personal tab
You can edit any tab online and save it as your Personal.

You can edit, replace or remove any tab part or add personal notes – all changes will be seen only by you.

Personal tabs can be accessed anytime from any device, even offline.
Learn more »
Give kudos to tab author, rate the tab!
1 2 3 4 5
comments
print report bad tab
3 comments total.
0 reply
Bruno Frenchy 4,768 Apr 09, 2016 02:01 PM

A complete version ideal for bands (Chords + Bass)...

0 reply
sheila scotty 16 Apr 09, 2016 02:42 PM

Very nice and useful tab. Thanks

0 reply
Bruno Frenchy 4,768 Apr 10, 2016 03:48 AM

You're welcome Sheila thanks for your kind support and rating... I am playing that song with my band so I had to write down properly... A good tab indeed here for that lovely song...

guest
You may want to rate the tab now too:
select rating
Wanna post a correction for this tab? Suggest correction