Oops, an error
Loading. Please wait.

Baby Youre So Good To Me bass

448 views 1 this week
no commentswrite comment
1 2 3 4 5
2 more votes to show rating
add to favorites
×
Save as Personal and add changes to this tab that will be seen only by you. Learn more ›
×
You can save this tab as Personal to edit and correct it or add notes. All changes will be seen only by you. Learn more »
launch autoscroll
font size
0
reset
guitar tuner
edit
Autoscroll
slow
fast
+/-
esc
set tempo
stop
Author
Baby You're So Good To Me
Gerry And The Pacemakers
Written by Gerry Marsden; released as the B-side to "I'll Be There"

Intro:
G|------- ------- ------- -------|------- ------- ------- -------|
D|-------------------------------|-------------------------------|
A|-------------------------------|-------------------------------|
E|7------------------------------|-------------------------------|



G|------- ------- ------- -------|------- ------- ------- -------|
D|-------------------------------|-------------------------------|
A|-------------------------------|-------------------------------|
E|5------------------------------|-------------------------------|



G|------- ------- ------- -------|------- ------- ------- -------|
D|-------------------------------|-------------------------------|
A|7------------------------------|-------------------------------|
E|-------------------------------|-------------------------------|



G|------- ------- ------- -------|------- ------- ------- -------|
D|-------------------------------|-------------------------------|
A|7------------------------------|-------------------------------|
E|-------------------------------|-------------------------------|


Verse:
G|------- ------- ------- -------|------- ------- ------- -------|
D|-------------------------------|-------------------------------|
A|7------------------------------|7------------------------------|
E|----------------7--------------|----------------7--------------|
  Eve  -  ry      time    I       hold        you


G|------- ------- ------- -------|------- ------- ------- -------|
D|-------------------------------|-------------------------------|
A|7------------------------------|7-----------------------7------|
E|----------------7--------------|--------7-------9--------------|
              close       to  me,                             I


G|------- ------- ------- -------|------- ------- ------- -------|
D|-------------------------------|-------------------------------|
A|7------------------------------|7------------------------------|
E|----------------7--------------|----------------7--------------|
  don't   mind    telling     eve    -    ry  -   one,    it's


G|------- ------- ------- -------|------- ------- ------- -------|
D|-------------------------------|--------4-------5-------6------|
A|7-------7-------7-------7------|7------------------------------|
E|-------------------------------|-------------------------------|
          plain           to  see                 That I      love


G|------- ------- ------- -------|------- ------- ------- -------|
D|7------------------------------|7-----------------------6------|
A|----------------7--------------|--------7-------9--------------|
E|-------------------------------|-------------------------------|
          you,                                    yes, I      love


G|------- ------- ------- -------|------- ------- ------- -------|
D|7------------------------------|7-----------------------7------|
A|----------------7--------------|----------------7--------------|
E|-------------------------------|-------------------------------|
          you,                                    Gon  -  na  tell


G|------- ------- ------- -------|------- ------- ------- -------|
D|9------------------------------|9------------------------------|
A|----------------9--------------|----------------9--------------|
E|-------------------------------|-------------------------------|
          the whole wide          world:


G|------- ------- ------- -------|------- ------- ------- -------|
D|7------------------------------|-------------------------------|
A|-------------------------------|-------------------------------|
E|-------------------------------|-------------------------------|
                  Ba   -  by,     you're  so      good    to  me,


G|------- ------- ------- -------|------- ------- ------- -------|
D|7------------------------------|7-----------------------7------|
A|----------------7--------------|----------------7--------------|
E|-------------------------------|-------------------------------|
                                          you're  good    to  me.


G|------- ------- ------- -------|------- ------- ------- -------|
D|9------------------------------|9-----------------------9------|
A|----------------9--------------|----------------9--------------|
E|-------------------------------|-------------------------------|
                                                              If

Verse:
G|------- ------- ------- -------|------- ------- ------- -------|
D|-------------------------------|-------------------------------|
A|7------------------------------|7-----------------------7------|
E|----------------7--------------|--------7-------9--------------|
          you're  fee  -  ling    lone   -    ly


G|------- ------- ------- -------|------- ------- ------- -------|
D|-------------------------------|-------------------------------|
A|7------------------------------|7-----------------------7------|
E|----------------7--------------|--------7-------9--------------|
                  a - ny      night,                          Just


G|------- ------- ------- -------|------- ------- ------- -------|
D|-------------------------------|-------------------------------|
A|7------------------------------|7------------------------------|
E|----------------7--------------|----------------7-------7------|
          keep    thin -  king    of  our     love,           and


G|------- ------- ------- -------|------- ------- ------- -------|
D|-------------------------------|--------4-------5-------6------|
A|7-------7-------7-------7------|7------------------------------|
E|-------------------------------|-------------------------------|
  you     will    be  all     right,             'Cause I     love


G|------- ------- ------- -------|------- ------- ------- -------|
D|7------------------------------|7-----------------------6------|
A|----------------7--------------|--------7-------9--------------|
E|-------------------------------|-------------------------------|
          you,                                    yes, I      love


G|------- ------- ------- -------|------- ------- ------- -------|
D|7------------------------------|7-----------------------7------|
A|----------------7--------------|----------------7--------------|
E|-------------------------------|-------------------------------|
          you,                                    Gon  -  na  tell


G|------- ------- ------- -------|------- ------- ------- -------|
D|9------------------------------|9------------------------------|
A|----------------9--------------|----------------9--------------|
E|-------------------------------|-------------------------------|
          the whole wide          world:


G|------- ------- ------- -------|------- ------- ------- -------|
D|7------------------------------|-------------------------------|
A|-------------------------------|-------------------------------|
E|-------------------------------|-------------------------------|
                  Ba   -  by,     you're  so      good    to  me,


G|------- ------- ------- -------|------- ------- ------- -------|
D|7------------------------------|7-----------------------7------|
A|----------------7--------------|----------------7--------------|
E|-------------------------------|-------------------------------|
                                          you're  good    to  me.


G|------- ------- ------- -------|------- ------- ------- -------|
D|9------------------------------|9-----------------------9------|
A|----------------9--------------|----------------9--------------|
E|-------------------------------|-------------------------------|


Bridge:
G|------- ------- ------- -------|------- ------- ------- -------|
D|7------------------------------|7------------------------------|
A|----------------7--------------|----------------7-------7------|
E|-------------------------------|-------------------------------|
                  Each            time            while


G|------- ------- ------- -------|------- ------- ------- -------|
D|7------------------------------|7-------7-------6--------------|
A|----------------7-------7------|------------------------9------|
E|-------------------------------|-------------------------------|
  we're           to  -   ge      -       ther,


G|------- ------- ------- -------|------- ------- ------- -------|
D|-------------------------------|-------------------------------|
A|7-------7----------------------|7-------7----------------------|
E|----------------7-------7------|----------------7-------7------|
                  Eve  -  ry  -   thing           is


G|------- ------- ------- -------|------- ------- ------- -------|
D|-------------------------------|------------------------6------|
A|7-------7----------------------|7-------7-------9--------------|
E|----------------7-------7------|-------------------------------|
  fine.


G|------- ------- ------- -------|------- ------- ------- -------|
D|7-------7----------------------|7-------7----------------------|
A|----------------7-------7------|----------------7-------7------|
E|-------------------------------|-------------------------------|
          I       get     this    fee  -  ling    in-


G|------- ------- ------- -------|------- ------- ------- -------|
D|7-------7----------------------|7-------7---------------7------|
A|----------------7-------7------|----------------7--------------|
E|-------------------------------|-------------------------------|
  side            of      me,


G|------- ------- ------- -------|------- ------- ------- -------|
D|9------------------------------|-------------------------------|
A|-------------------------------|-------------------------------|
E|-------------------------------|-------------------------------|
          This    fee  -  ling    that    you     are     mine.


G|------- ------- ------- -------|------- ------- ------- -------|
D|--------9-------9--------------|9-------9---------------9------|
A|-------------------------------|-------------------------------|
E|-------------------------------|-------------------------------|


Verse:
G|------- ------- ------- -------|------- ------- ------- -------|
D|-------------------------------|-------------------------------|
A|7------------------------------|7------------------------------|
E|----------------7--------------|----------------7--------------|
  Eve  -  ry      time    you     kiss        me


G|------- ------- ------- -------|------- ------- ------- -------|
D|-------------------------------|-------------------------------|
A|7------------------------------|7-----------------------7------|
E|----------------7--------------|--------7-------9--------------|
                  ten  -  derly,                              My


G|------- ------- ------- -------|------- ------- ------- -------|
D|-------------------------------|-------------------------------|
A|7------------------------------|7------------------------------|
E|----------------7--------------|----------------7--------------|
          heart   keeps   on      saying                  that


G|------- ------- ------- -------|------- ------- ------- -------|
D|-------------------------------|--------4-------5-------6------|
A|7-------7-------7-------7------|7------------------------------|
E|-------------------------------|-------------------------------|
  you're      the girl        for me,                 And I


G|------- ------- ------- -------|------- ------- ------- -------|
D|7------------------------------|7-----------------------6------|
A|----------------7--------------|--------7-------9--------------|
E|-------------------------------|-------------------------------|
  love    you,                                    yes, I


G|------- ------- ------- -------|------- ------- ------- -------|
D|7------------------------------|7-----------------------7------|
A|----------------7--------------|----------------7--------------|
E|-------------------------------|-------------------------------|
  love    you,                                    Gon  -  na  tell


G|------- ------- ------- -------|------- ------- ------- -------|
D|9------------------------------|9------------------------------|
A|----------------9--------------|----------------9--------------|
E|-------------------------------|-------------------------------|
          the whole wide          world:


G|------- ------- ------- -------|------- ------- ------- -------|
D|7------------------------------|-------------------------------|
A|-------------------------------|-------------------------------|
E|-------------------------------|-------------------------------|
                  Ba   -  by,     you're  so      good    to  me,


G|------- ------- ------- -------|------- ------- ------- -------|
D|7------------------------------|7-----------------------7------|
A|----------------7--------------|----------------7--------------|
E|-------------------------------|-------------------------------|
                                          you're  good    to  me.


G|------- ------- ------- -------|------- ------- ------- -------|
D|9------------------------------|9-----------------------9------|
A|----------------9--------------|----------------9--------------|
E|-------------------------------|-------------------------------|


Verse (solo):
G|------- ------- ------- -------|------- ------- ------- -------|
D|-------------------------------|-------------------------------|
A|7------------------------------|7-----------------------7------|
E|----------------7--------------|--------7-------9--------------|



G|------- ------- ------- -------|------- ------- ------- -------|
D|-------------------------------|-------------------------------|
A|7------------------------------|7-----------------------7------|
E|----------------7--------------|--------7-------9--------------|



G|------- ------- ------- -------|------- ------- ------- -------|
D|-------------------------------|-------------------------------|
A|7------------------------------|7------------------------------|
E|----------------7--------------|----------------7-------7------|



G|------- ------- ------- -------|------- ------- ------- -------|
D|-------------------------------|--------4-------5-------6------|
A|7-------7-------7-------7------|7------------------------------|
E|-------------------------------|-------------------------------|



G|------- ------- ------- -------|------- ------- ------- -------|
D|7------------------------------|7-----------------------6------|
A|----------------7--------------|--------7-------9--------------|
E|-------------------------------|-------------------------------|



G|------- ------- ------- -------|------- ------- ------- -------|
D|7------------------------------|7-----------------------7------|
A|----------------7--------------|----------------7--------------|
E|-------------------------------|-------------------------------|



G|------- ------- ------- -------|------- ------- ------- -------|
D|9------------------------------|9-------9---------------9------|
A|----------------9--------------|----------------9--------------|
E|-------------------------------|-------------------------------|



G|------- ------- ------- -------|------- ------- ------- -------|
D|7------------------------------|-------------------------------|
A|-------------------------------|-------------------------------|
E|-------------------------------|-------------------------------|



G|------- ------- ------- -------|------- ------- ------- -------|
D|7------------------------------|7-----------------------7------|
A|----------------7--------------|----------------7--------------|
E|-------------------------------|-------------------------------|



G|------- ------- ------- -------|------- ------- ------- -------|
D|9------------------------------|9-----------------------9------|
A|----------------9--------------|----------------9--------------|
E|-------------------------------|-------------------------------|


Bridge:
G|------- ------- ------- -------|------- ------- ------- -------|
D|7-------7----------------------|7-------7----------------------|
A|----------------7-------7------|----------------7-------7------|
E|-------------------------------|-------------------------------|
                  Each            time            while


G|------- ------- ------- -------|------- ------- ------- -------|
D|7-------7----------------------|7-------7-------6--------------|
A|----------------7-------7------|------------------------9------|
E|-------------------------------|-------------------------------|
  we're           to  -   ge      -       ther,


G|------- ------- ------- -------|------- ------- ------- -------|
D|-------------------------------|-------------------------------|
A|7-------7----------------------|7-------7----------------------|
E|----------------7-------7------|----------------7-------7------|
                  Eve  -  ry  -   thing           is


G|------- ------- ------- -------|------- ------- ------- -------|
D|-------------------------------|------------------------6------|
A|7-------7----------------------|7-------7-------9--------------|
E|----------------7-------7------|-------------------------------|
  fine.


G|------- ------- ------- -------|------- ------- ------- -------|
D|7-------7----------------------|7-------7----------------------|
A|----------------7-------7------|----------------7-------7------|
E|-------------------------------|-------------------------------|
          I       get     this    fee  -  ling    in-


G|------- ------- ------- -------|------- ------- ------- -------|
D|7-------7----------------------|7-------7---------------7------|
A|----------------7-------7------|----------------7--------------|
E|-------------------------------|-------------------------------|
  side            of      me,


G|------- ------- ------- -------|------- ------- ------- -------|
D|9------------------------------|-------------------------------|
A|-------------------------------|-------------------------------|
E|-------------------------------|-------------------------------|
          This    fee  -  ling    that    you     are     mine.


G|------- ------- ------- -------|------- ------- ------- -------|
D|--------9-------9--------------|9-------9---------------9------|
A|-------------------------------|-------------------------------|
E|-------------------------------|-------------------------------|


Verse:
G|------- ------- ------- -------|------- ------- ------- -------|
D|-------------------------------|-------------------------------|
A|7------------------------------|7------------------------------|
E|----------------7--------------|----------------7-------7------|
  Eve  -  ry      time    you     kiss        me


G|------- ------- ------- -------|------- ------- ------- -------|
D|-------------------------------|-------------------------------|
A|7------------------------------|7-----------------------7------|
E|----------------7--------------|--------7-------9--------------|
                  ten  -  derly,                              My


G|------- ------- ------- -------|------- ------- ------- -------|
D|-------------------------------|-------------------------------|
A|7------------------------------|7------------------------------|
E|----------------7--------------|----------------7--------------|
          heart   keeps   on      saying              that


G|------- ------- ------- -------|------- ------- ------- -------|
D|-------------------------------|--------4-------5-------6------|
A|7-------7-------7-------7------|7------------------------------|
E|-------------------------------|-------------------------------|
  you're  the     girl    for     me,             And I


G|------- ------- ------- -------|------- ------- ------- -------|
D|7------------------------------|7-----------------------6------|
A|----------------7--------------|--------7-------9--------------|
E|-------------------------------|-------------------------------|
  love    you,                                    yes, I


G|------- ------- ------- -------|------- ------- ------- -------|
D|7------------------------------|7-----------------------7------|
A|----------------7--------------|----------------7--------------|
E|-------------------------------|-------------------------------|
  love    you,                                                I'm


G|------- ------- ------- -------|------- ------- ------- -------|
D|9------------------------------|9-----------------------9------|
A|----------------9--------------|----------------9--------------|
E|-------------------------------|-------------------------------|
  gonna   tell the whole  wide    world:


G|------- ------- ------- -------|------- ------- ------- -------|
D|7------------------------------|-------------------------------|
A|-------------------------------|-------------------------------|
E|-------------------------------|-------------------------------|
                  Ba   -  by,     you're  so      good    to  me,


G|------- ------- ------- -------|------- ------- ------- -------|
D|7------------------------------|7-----------------------7------|
A|----------------7--------------|----------------7--------------|
E|-------------------------------|-------------------------------|
                                                  good    to  me.


G|------- ------- ------- -------|------- ------- ------- -------|
D|9------------------------------|9------------------------------|
A|----------------9--------------|----------------9--------------|
E|-------------------------------|-------------------------------|


Outro:
G|------- ------- ------- -------|------- ------- ------- -------|
D|9------------------------------|-------------------------------|
A|-------------------------------|-------------------------------|
E|-------------------------------|-------------------------------|



G|------- ------- ------- -------|------- ------- ------- -------|
D|7------------------------------|-------------------------------|
A|-------------------------------|-------------------------------|
E|-------------------------------|-------------------------------|



G|------- ------- ------- -------|------- ------- ------- -------|
D|-------------------------------|-------------------------------|
A|7------------------------------|-------------------------------|
E|-------------------------------|-------------------------------|

Please e-mail me for any corrections, or write a comment.

            
            
Suggest correction
Creating personal tab
Creating personal tab
You can edit any tab online and save it as your Personal.

You can edit, replace or remove any tab part or add personal notes – all changes will be seen only by you.

Personal tabs can be accessed anytime from any device, even offline.
Learn more »
Give kudos to tab author, rate the tab!
1 2 3 4 5
comments
print report bad tab
guest
You may want to rate the tab now too:
select rating
Wanna post a correction for this tab? Suggest correction