Oops, an error
Loading. Please wait.

Ferry Cross The Mersey bass

version 3
version 3

Whole song

Interactive

79 views 6 this week
no commentswrite comment
1 2 3 4 5
3 more votes to show rating
add to favorites
×
Save as Personal and add changes to this tab that will be seen only by you. Learn more ›
×
You can save this tab as Personal to edit and correct it or add notes. All changes will be seen only by you. Learn more »
launch autoscroll
font size
0
reset
guitar tuner
backing track
0:00
0:00
edit
Autoscroll
slow
fast
+/-
esc
set tempo
stop
Author
Ferry Cross The Mersey
Track taken from the sound track of the same name by Gerry & The 
Pacemakers reached #8 UK charts 1964. Bass performance Les Chadwick
Tab by bass50611. As per original more condensed. What a great song.

Intro: (DRUM START)

G|-------------------------------------------------------------|
D|-------11--9----------11--9----------11--9----------11--9----|
A|-14\7--------------7--------------7--------------7-----------|
E|--------------7--------------7--------------7--------------7-|

Verse 1:                                          (Play This x2)
G|----------------------------------------------------------|
D|----11--9----------11--9----------11--9----------11--9----|
A|-7--------------7--------------7--------------7-----------|
E|-----------7--------------7--------------7--------------7-|

Chorus 1:
G|-----------------------------------------------------|
D|-----------4-5-6-----6---6-5-4------4--4---------4---|
A|-7------7---------6--------------4---------2---2---2-|
E|-----7-----------------------------------------------|

G|----6---4---------6---4----|
D|-2-------------2-----------|
A|-----------2---------------|
E|-------------------------7-|

Verse 2:                                          (Play This x2)
G|----------------------------------------------------------|
D|----11--9----------11--9----------11--9----------11--9----|
A|-7--------------7--------------7--------------7-----------|
E|-----------7--------------7--------------7--------------7-|

Chorus 2:
G|-----------------------------------------------------|
D|-----------4-5-6-----6---6-5-4------4--4---------4---|
A|-7------7---------6--------------4---------2---2---2-|
E|-----7-----------------------------------------------|

G|----6---4-------------------|
D|-2-------------2---2---2--3-|
A|-----------2---------2------|
E|----------------------------|

Bridge:
G|-------4--4-------------------4--4-------------------4--4-3--1--1--|
D|-4--4--------2---2--2---4--4--------2---2--2---4--4--------------1-|
A|------------------2----------------------2-------------------------|
E|-------------------------------------------------------------------|

G|-----------4-4--2-2--1-1-----|
D|-4---4--4----------------4-4-|
A|------4----------------------|
E|-----------------------------|

Verse 3:                                          (Play This x2)
G|----------------------------------------------------------|
D|----11--9----------11--9----------11--9----------11--9----|
A|-7--------------7--------------7--------------7-----------|
E|-----------7--------------7--------------7--------------7-|

Chorus 1:
G|-----------------------------------------------------|
D|-----------4-5-6-----6---6-5-4------4--4---------4---|
A|-7------7---------6--------------4---------2---2---2-|
E|-----7-----------------------------------------------|

G|----6---4---------6---4----|
D|-2-------------2-----------|
A|-----------2-------------2-|
E|---------------------------|

Outro:                                                      (End)
G|----6---4---------6---4---------6---4---------6---4---------|
D|-2-------------2-------------2-------------2--------------2-|
A|-----------2-------------2-------------2-------------2------|
E|------------------------------------------------------------|


Life goes on day after day
Hearts torn in every way

So ferry 'cross the Mersey
'Cause this land's the place I love
And here I'll stay

People they rush everywhere
Each with their own secret care

So ferry 'cross the Mersey
And always take me there
The place I love

People around every corner
They seem to smile and say
We don't care what your name is boy
We'll never turn you away

So I'll continue to say
Here I always will stay

So ferry 'cross the Mersey
'Cause this land's the place I love
And here I'll stay, and here I'll stay
Here I'll stay

            
            
Suggest correction
Creating personal tab
Creating personal tab
You can edit any tab online and save it as your Personal.

You can edit, replace or remove any tab part or add personal notes – all changes will be seen only by you.

Personal tabs can be accessed anytime from any device, even offline.
Learn more »
Give kudos to tab author, rate the tab!
1 2 3 4 5
comments
print report bad tab
guest
You may want to rate the tab now too:
select rating
Wanna post a correction for this tab? Suggest correction