Oops, an error
Loading. Please wait.

I Like It bass

version 2
version 2

Whole song

34 views 1 this week
no commentswrite comment
1 2 3 4 5
2 more votes to show rating
add to favorites
×
Save as Personal and add changes to this tab that will be seen only by you. Learn more ›
×
You can save this tab as Personal to edit and correct it or add notes. All changes will be seen only by you. Learn more »
launch autoscroll
font size
0
reset
guitar tuner
edit
Autoscroll
slow
fast
+/-
esc
set tempo
stop
Author
I Like It
Second  single release and second UK number 1 for Gerry & The Pacemakers
In 1963. Bass performance Les Chadwick. Tab by bass50611. Saw them live
On The Beatles Xmas Tour in 1963, Just as good now as they were then

Intro:
G|-------------------------------------------------|
D|-------------------------------------------------|
A|5--5--5--5--5--5--5--5----5--5--5--5--5--5--5--5-|
E|-------------------------------------------------|

Verse 1:                                (Break)
G|----4------------------------------------|
D|-5------7--------5------5----------------|
A|-----------5--5-----5------5---7-------7-|
E|----------------------------------7--7---|

                                         (Break)
G|-----------------------------------------|
D|-----------------------------5---5-------|
A|-3------3------3-----3---5-----5----5--5-|
E|----3------3------3----------------------|

Verse 2:
G|----4------------------------------------|
D|-5------7--------5------5----------------|
A|-----------5--5-----5------5---7-------7-|
E|----------------------------------7--7---|

                                     (Break)
G|----------------------------------------------------------------------|
D|-----------------------------5---5-------------5--5--------5--3--2----|
A|-3------3------3-----3---5-----5----5----------------3--3-----------5-|
E|----3------3------3---------------------------------------------------|

Bridge:
G|-------------------------------------------------------------------|
D|--------5-----5----------5-----5---------5-----5---7-7-7-7-7-7-7-7-|
A|-3----3----5------3----3----5-----3----3----5----------------------|
E|----3----------------3---------------3-----------------------------|

G|-------------------------------------------------|
D|-----------------7-7-7-7-7-7-7-7-----------------|
A|-5-5-5-5-5-5-5-5-----------------5-5-5-5-5-5-5-5-|
E|-------------------------------------------------|

Verse 3:
G|----4------------------------------------|
D|-5------7--------5------5----------------|
A|-----------5--5-----5------5---7-------7-|
E|----------------------------------7--7---|

                                   (Break)
G|----------------------------------------------------------------------|
D|-----------------------------5---5-------------5--5--------5--3--2----|
A|-3------3------3-----3---5-----5---5-----------------3--3-----------5-|
E|----3------3------3---------------------------------------------------|

Bridge:
G|-------------------------------------------------------------------|
D|--------5-----5----------5-----5---------5-----5---7-7-7-7-7-7-7-7-|
A|-3----3----5------3----3----5-----3----3----5----------------------|
E|----3----------------3---------------3-----------------------------|

G|-------------------------------------------------|
D|-----------------7-7-7-7-7-7-7-7-----------------|
A|-5-5-5-5-5-5-5-5-----------------5-5-5-5-5-5-5-5-|
E|-------------------------------------------------|

Verse 4:                                (Break)
G|----4------------------------------------|
D|-5------7--------5------5----------------|
A|-----------5--5-----5------5---7-------7-|
E|----------------------------------7--7---|

                                     (Break)
G|-------------------------------------|
D|-----------------------------5---5---|
A|-3------3------3-----3---5-----5---5-|
E|----3------3------3-----------------|

Outro:       (Pause)                                (End)
G|----4---------------------4--------------------------|
D|-5------7--------------5-----7---------5--5--------5-|
A|------------5--------------------5-----------3--3----|
E|-----------------------------------------------------|



I like it, I like it
I like the way you run your fingers through my hair
And I love the way you tickle my chin
And I like the way you let me come in when your mother ain't there

I like it, I like it
I like the words you say and all the things you do
And I like the way you straighten my tie
And I like the way you're winking your eye
And I know I like you
You know I like you

Do that again
You're driving me insane
Kiss me once more
That's another thing I like you for

I like it, I like it
I like the funny feeling being here with you
And I like you more with every day
And I like it always hearing you say you're liking it too
You're liking it too

I'm asking you
What do you wanna do
Do you agree
That the world was made for you and me?

I like it, I like it
I like the funny feeling being here with you
And I like it more with every day
And I like to always hearing you say you're liking it too
You're liking it too

Whoa, I like it
Are you liking it too?

            
            
Suggest correction
Creating personal tab
Creating personal tab
You can edit any tab online and save it as your Personal.

You can edit, replace or remove any tab part or add personal notes – all changes will be seen only by you.

Personal tabs can be accessed anytime from any device, even offline.
Learn more »
Give kudos to tab author, rate the tab!
1 2 3 4 5
comments
print report bad tab
guest
You may want to rate the tab now too:
select rating
Wanna post a correction for this tab? Suggest correction