Oops, an error
Loading. Please wait.

Its Gonna Be Alright Bass Tab

22 views 3 this week
no commentswrite comment
1 2 3 4 5
3 more votes to show rating
add to favorites
launch autoscroll
font size
0
reset
guitar tuner
Autoscroll
slow
fast
+/-
esc
set tempo
stop
Help us to improve Ultimate-Guitar.com Take our survey!
×
Author
It’s Gonna Be Alright
Taken from the film Ferry Across The Mersey this single released by
Liverpool legends Gerry & The Pacemakers in 1964 reaching #24 in UK.
Bass performance Les Chadwick. Tab by bass50611. More or less as original

Intro:                     (Break)
G|--------|------------------|
D|-GUITAR-|-7----7----7----7-|
A|-START--|---7----7----7----|
E|--------|------------------|

Chorus:
G|----------------------|
D|-7----------7---------|
A|---7---7------7---7---|
E|---------7----------7-|

Verse 1:                                      (Break)
G|----------------------------------------------|
D|-7------------------------7-------------------|
A|---7---7-----------7--7-----7---7-----------7-|
E|---------7---8--8-----------------7---8--8----|

Chorus:
G|----------------------|
D|-7----------7---------|
A|---7---7------7---7---|
E|---------7----------7-|

Verse 2:                                      (Break)
G|----------------------------------------------|
D|-7------------------------7-------------------|
A|---7---7-----------7--7-----7---7-----------7-|
E|---------7---8--8-----------------7---8--8----|

Chorus 2:
G|------------------------|
D|-7----------7----7--7-6-|
A|---7---7------7---------|
E|---------7--------------|

Middle 8:                                                  (Break)
G|-------------------2-5-2---------------------------------------|
D|-5----5-3-2----2-5------5-2---5---------2----------------------|
A|---5-------5--3-----------------5---2-5------------------------|
E|-----------------------------------3-------5-5-5-5---0-0-0-0-0-|

Chorus:
G|----------------------|
D|-7----------7---------|
A|---7---7------7---7---|
E|---------7----------7-|

Verse 3:                                      (Break)
G|----------------------------------------------|
D|-7------------------------7-------------------|
A|---7---7-----------7--7-----7---7-----------7-|
E|---------7---8--8-----------------7---8--8----|

Chorus:
G|----------------------|
D|-7----------7---------|
A|---7---7------7---7---|
E|---------7----------7-|

Interlude:                                  (Break)
G|----------------------------------------------|
D|-7------------------------7-------------------|
A|---7---7-----------7--7-----7---7-----------7-|
E|---------7---8--8-----------------7---8--8----|

G|------------------------|
D|-7----------7----7--7-6-|
A|---7---7------7---------|
E|---------7--------------|

Middle 8:                                                    (Break)
G|-------------------2-5-2---------------------------------------|
D|-5----5-3-2----2-5------5-2---5---------2----------------------|
A|---5-------5--3-----------------5---2-5------------------------|
E|-----------------------------------3-------5-5-5-5---0-0-0-0-0-|

Chorus:
G|----------------------|
D|-7----------7---------|
A|---7---7------7---7---|
E|---------7----------7-|

Verse 3:                                      (Break)
G|----------------------------------------------|
D|-7------------------------7-------------------|
A|---7---7-----------7--7-----7---7-----------7-|
E|---------7---8--8-----------------7---8--8----|

Outro:                                   (Break)    (End)
G|--------------------------------------------------------|
D|-7----------7----------7----------7---------------------|
A|---7---7------7---7------7---7------7---7-------------0-|
E|---------7----------7----------7------------------------|


(Alternative Middle Eight A) 
G|-------------------2-5-2----------------------------------------|
D|-5----5-3-2----2-5------5-2--5-3-2------------------------------|
A|---5-------5--3-------------------5-3-2-------------------------|
E|---------------------------------------5-3--5-5-5-5---0-0-0-0-0-|

(Alternative Middle Eight B) 
G|-------------------2-5-2------------------------------------|
D|-5----5-3-2----2-5------5-2--5---5-3-2----------------------|
A|---5-------5--3----------------5------5---------------------|
E|----------------------------------------5-5-5-5---0-0-0-0-0-|

Suggest correction
Give kudos to tab author, rate the tab!
1 2 3 4 5
comments
print report bad tab
guest
You may want to rate the tab now too:
select rating
Wanna post a correction for this tab? Suggest correction