Oops, an error
Loading. Please wait.

Popcorn Tab

4,583 views 9 this week
no commentswrite comment
1 2 3 4 5
poor
x 4
add to favorites
launch autoscroll
font size
0
reset
how to read this tab
guitar tuner
Tab Pro tools
  • play this tab
  • loop segment
  • change instrument
  • show fretboard
  • metronome
Autoscroll
slow
fast
+/-
esc
set tempo
stop
Contributor
Difficulty
This is the popular techno song, "Popcorn," as first recorded by Gershon Kingley. Since 
are a million different covers out there, this is just the main keyboard sound that 
it what it is. This is how I play it, anyway.

e------------------------------------------------------------------------|
B--9-7-9-----------9-7-9------------9-11-12-12-12-11-11-11-9-9-9-7-9-----|
G--------9-7-9-----------9-7-9-------------------------------------------|
D--------------9---------------9-----------------------------------------|
A------------------------------------------------------------------------|
E------------------------------------------------------------------------|

e------------------------------------------------------------------------|
B--9-7-9-----------9-7-9------------9-11-12-12-12-11-11-11-9-9-9-11-12---|
G--------9-7-9-----------9-7-9-------------------------------------------|
D--------------9---------------9-----------------------------------------|
A------------------------------------------------------------------------|
E------------------------------------------------------------------------|

e--12-10-12--------------12-10-12----------------------------------------|
B-----------12-10-12--------------12-10-12-------------------------------|
G--------------------12--------------------12----------------------------|
D------------------------------------------------------------------------|
A------------------------------------------------------------------------|
E------------------------------------------------------------------------|

e--12-14-15-15-15-14-14-14-12-12-12-10-12--------------------------------|
B------------------------------------------------------------------------|
G------------------------------------------------------------------------|
D------------------------------------------------------------------------|
A------------------------------------------------------------------------|
E------------------------------------------------------------------------|

e--12-10-12--------------12-10-12----------------------------------------|
B-----------12-10-12--------------12-10-12-------------------------------|
G--------------------12--------------------12----------------------------|
D------------------------------------------------------------------------|
A------------------------------------------------------------------------|
E------------------------------------------------------------------------|

e--12-14-15-15-15-14-14-14-12-12-10-10-11-11-12--------------------------|
B------------------------------------------------------------------------|
G------------------------------------------------------------------------|
D------------------------------------------------------------------------|
A------------------------------------------------------------------------|
E------------------------------------------------------------------------|

And repeat. Email me suggestions at thethefan100@yahoo.com. Thanks for reading!

To learn more about Gershon Kingsley, go to:

http://www.kingsleysound.com/title.html
comments
print report bad tab
I want to post or [tab]
guest
You may want to rate the tab now too:
select rating
Please do not post tabs as comments. Select "correction" instead!