Oops, an error
Loading. Please wait.

Call Me Ishmael intro tab

version 1
version 1

Intro

6,746 views 12 this week
2 commentsread comments
1 2 3 4 5
x 5
add to favorites
×
Save as Personal and add changes to this tab that will be seen only by you. Learn more ›
×
You can save this tab as Personal to edit and correct it or add notes. All changes will be seen only by you. Learn more »
launch autoscroll
font size
0
reset
how to read this tab
guitar tuner
edit
Autoscroll
slow
fast
+/-
esc
set tempo
stop
============================================
Get Cape. Wear Cape. Fly - Call me Ishmael
============================================

Well i thought id have a crack at this since no one else has.
The intro is also used for basically all the verse until the chorus begins.

Capo 4th
relative to capo

e|--------------------------------------------|
B|-------0----0----0--------------------------|
G|--------0----0----0-------2------4-2-0h2p0--|
D|-----0--------------0----0-0----------------| 
A|---------------------------------5-4-2------|
E|--3-------3----3-------2----2---------------|

e|--------------------------------------------|
B|--------------------------------------------|
G|-------2---2---2-------0------5-4-2p0-------|
D|--------0---0---0-----0-0------------0------|
A|-----2---2---2---2------------5-4-2---------|
E|--(3)---------------0----0------------------|

Repeat all however many times

It sounds good to me, hope it helps.
Any corrections, please let me know!

            
            
Suggest correction
Creating personal tab
Creating personal tab
You can edit any tab online and save it as your Personal.

You can edit, replace or remove any tab part or add personal notes – all changes will be seen only by you.

Personal tabs can be accessed anytime from any device, even offline.
Learn more »
comments
print report bad tab
2 comments total.
0 reply
chalres 61 Mar 31, 2007 12:48 AM

the first bit seems a bit iffy
and it all sounds a teensy bit flat
i dunno
s'alright

0 reply
mattai 41 Aug 14, 2007 12:03 PM

i think that this part

e|--------------------------------------------|
B|-------0----0----0--------------------------|
G|--------0----0----0-------2------4-2-0h2p0--|
D|-----0--------------0----0-0----------------|
A|---------------------------------5-4-2------|
E|--3-------3----3-------2----2---------------|

should be changed to this:

e|--------------------------------------------|
B|-------0----0----0--------------------------|
G|--------0----0----0-------2------4-2-0h2p0--|
D|-----0----0----0-----0---0-0----------------|
A|---------------------------------5-4-2------|
E|--3--------------------2-----2--------------|

other than that it sounds pretty spot on to me and what i think should be changed it only minor, and im glad u tabbed it cos id been looking for a good tab everywhere!!
matt

guest
You may want to rate the tab now too:
select rating
Wanna post a correction for this tab? Suggest correction