Oops, an error
Loading. Please wait.

War Of The Worlds intro tab

version 1
version 1

Intro

Whole song

Interactive

17,457 views 3 this week
4 commentsread comments
1 2 3 4 5
x 16
add to favorites
×
Save as Personal and add changes to this tab that will be seen only by you. Learn more ›
×
You can save this tab as Personal to edit and correct it or add notes. All changes will be seen only by you. Learn more »
launch autoscroll
font size
0
reset
how to read this tab
guitar tuner
edit
Autoscroll
slow
fast
+/-
esc
set tempo
stop
War Of The Worlds
by Get Cape. Wear Cape. Fly.

(capo 1st fret)


E------------------------------------0--------------0---------|
B---3--1---------0h1----3--1-------0---0----------1-----1-----|
G----0---0-----------0-------0-----0-----0------2---------0---|
D----------2-------------------2-2-2-------2--3-------3-----0-|
A---3--3-----3---0------0--0-------2----------0---------------|
E--------------------------------0-0--------------------------|

E------------------------------------0--------------0---------|
B-----3h1------0h1---1h3-3h5-0-----0---0----------1-----1-----|
G---------0--------0-----------0---0-----0------2---------0---|
D----2-----2---------------------2-2-------2--3-------3-----0-|
A---3-------3--0-----0---0---------2----------0---------------|
E--------------------------------0-0--------------------------|

checked this with powertab
seems pretty good :]
enjoy
sophie
xxxx

            
            
Suggest correction
Creating personal tab
Creating personal tab
You can edit any tab online and save it as your Personal.

You can edit, replace or remove any tab part or add personal notes – all changes will be seen only by you.

Personal tabs can be accessed anytime from any device, even offline.
Learn more »
comments
print report bad tab
4 comments total. Showing first comments.
0 reply
naggers 85 Jan 12, 2007 01:17 PM

Nice. Is that Bender's binary code off Futurama?

0 reply
perky_123 41 Feb 01, 2007 01:09 AM

its dead rite but im not sure whether he plays it with a capo on the second i thinks that what i saw him playing

0 reply
nagus_kook 50 Apr 09, 2007 06:02 AM

great tab

absolutly spot on

just the capo is on two, not one :)

cheers

guest
You may want to rate the tab now too:
select rating
Wanna post a correction for this tab? Suggest correction