Oops, an error
Loading. Please wait.

The Process Tab

488 views 3 this week
no commentswrite comment
1 2 3 4 5
please rate
add to favorites
launch autoscroll
font size
0
reset
how to read this tab
guitar tuner
Autoscroll
slow
fast
+/-
esc
set tempo
stop
Help us to improve Ultimate-Guitar.com Take our survey!
×
Author
Difficulty
-------------------------------------------------------------------------------
                             The Process - Get Dead
-------------------------------------------------------------------------------
Tabbed by: squintyjoefan
E-mail: squintyjoefan@hotmail.com

Track 2 from the album 'Bad News'

http://www.youtube.com/watch?v=ZQj5e0zX6S8

I'm note 100% sure on the solo, but I think most of it is there.


Tuning: Standard (EADGBe)

Intro 
Verse
Chorus
Verse
Chorus
Solo
Verse
Chorus
Outro


Intro
e|---------------------------------------------------------------------------|
B|---------------------------------------------------------------------------|
G|---------------------------------------------------------------------------|
D|---------------------------------------------------------------------------|
A|---55555555--22222222------------------------------------------------------|
E|---33333333--33333333------------------------------------------------------|
Play this 4 times


Verse

e|---------------------------------------------------------------------------|
B|---------------------------------------------------------------------------|
G|----------------------------------------------------5-----7-----5-----7----|
D|----------------------------------------------------5-----7-----5-----7----|
A|-----5-----5-----2-----2------5-----5-----2-----2---3(x8)-5(x8)-3(x8)-5(x8)|
E|--33-3--33-3--33-3--33-3---33-3--33-3--33-3--33-3--------------------------|
PM  ..    ..    ..    ..     ..    ..    ..    ..    
 
e|---------------------------------------------------------------------------|
B|---------------------------------------------------------------------------|
G|-----------------------------------------------------------3---------------|
D|----------------------------------------------------5------3---------------|
A|-----5-----5-----2-----2------5-----5-----2-----2---5(x16)-3(x16)----------|
E|--33-3--33-3--33-3--33-3---33-3--33-3--33-3--33-3---3----------------------|
PM  ..    ..    ..    ..     ..    ..    ..    ..    

Chorus

e|---------------------------------------------------------------------------|
B|---------------------------------------------------------------------------|
G|--5-----7-------------------5-----7----------------------------------------|
D|--5-----7-----5-55-55-55-5--5-----7----------------------------------------|
A|--3(x8)-5(x8)-5-55-55-55-5--3(x8)-5(x8)-5-55555-5-555555-4/55555-4/555555--|
E|--------------3-33-33-33-3--------------3-33333-3-333333-2/33333-2/333333--|

e|---------------------------------------------------------------------------|
B|---------------------------------------------------------------------------|
G|--5-----7----------7~--5~---5-----7----------------------------------------|
D|--5-----7------2~--7~--5~---5-----7-----5----------------------------------|
A|--3(x8)-5(x8)--2~--5~--3~---3(x8)-5(x8)-5----------------------------------|
E|---------------0~-----------------------3(x16)-----------------------------|

Solo 
(G5 chord is played over this - listen to the rhythm)

e|---------------------------------66666---66666---6-5-3---------------------|
B|---------------------------------66666---66666-----------------------------|
G|--5b7-5b7-5b7-5b7-5-3----------7-----------------------5-3-----------------|
D|----------------------5------------------------------------5-3-5-----------|
A|---------------------------------------------------------------------------|
E|---------------------------------------------------------------------------|
      Repeat this 3 times   

Outro

e|---------------------------------------------------------------------------|
B|---------------------------------------------------------------------------|
G|--5-----7-----------------5-----7------------------------------------------|
D|--5-----7-----5-----2-----5-----7-----5-------5~---------------------------|
A|--3(x8)-5(x8)-5-----2-----3(x8)-5(x8)-5-------5~---------------------------|
E|--------------3(x8)-0(x8)-------------3(x16)--3~---------------------------|


************************************

| /   slide up
| \   slide down
| h   hammer-on
| p   pull-off
| ~   vibrato
| +   harmonic
| x   Mute note
| b   Bend
| pb  Pre-bend
| br  Bend release
| pbr Pre-bend release
| brb Bend release bend

************************************
Suggest correction
What's this?
You can suggest a correction to this tab. Community and Mods will review your correction and vote to approve or reject it.
comments
We did not receive enough feedback on this tab! Please rate:
print report bad tab
1 2 3 4 5
guest
You may want to rate the tab now too:
select rating
Please do not post tabs as comments. Select "correction" instead!