Oops, an error
Loading. Please wait.

This Ones For Johnny Tab

1,188 views 3 this week
2 commentsread comments
1 2 3 4 5
please rate
add to favorites
launch autoscroll
font size
0
reset
how to read this tab
guitar tuner
Autoscroll
slow
fast
+/-
esc
set tempo
stop
Help us to improve Ultimate-Guitar.com Take our survey!
×
Author
Difficulty
novice
-------------------------------------------------------------------------------
                             This One's For Johnny - Get Dead
-------------------------------------------------------------------------------
Tabbed by: squintyjoefan
E-mail: squintyjoefan@hotmail.co.uk

Band details can be found at:
http://getdead.bandcamp.com/

Video at: 
http://www.youtube.com/watch?v=gvecJe0Abt0



Tuning: EADGBE

Intro/Verse/Chorus Chords
e|---------------------------------------------------------------------------|
B|---------------------------------------------------------------------------|
G|--6--------------------6---------------------------------------------------|
D|--6------6------4------6---------------------------------------------------|
A|--4------6------4------4---------------------------------------------------|
E|---------4------2----------------------------------------------------------|

    C#5   G#5    F#5    C#5

2nd Guitar can play the whole barre version of these chords

Strum Pattern:  DU  DUD U  DUD U  DUD U DU [change chord and repeat]

This strum pattern is used throught the whole song



Post Chorus
e|---------------------------------------------------------------------------|
B|---------------------------------------------------------------------------|
G|--6---------------------------6--------------------------------------------|
D|--6-----6------3------4-------6-----6-----4--------------------------------|
A|--4-----6------3------4-------4-----6-----4--------------------------------|
E|--------4------1------2-------------4-----2--------------------------------|

   C#5   G#5     F      F#5    C#5   G#5   F#5


Solo

e|---------------9-------9-------9----------11---------11----------11--------|
B|---------------------------------------------------------------------------|
G|--6--8-----6-------6-------6----------8---------8---------8----------------|
D|---------------------------------------------------------------------------|
A|---------------------------------------------------------------------------|
E|---------------------------------------------------------------------------|

e|-------13-----------13-----------13------13--13--13131313----11---9---9----|
B|---------------------------------------------------------------------------|
G|--10----------10----------10-----------------------------------------------|
D|---------------------------------------------------------------------------|
A|---------------------------------------------------------------------------|
E|---------------------------------------------------------------------------|
                                              These are 13's

e|---------------------------------------------------------------------------|
B|-----------9---------------------------------------------------------------|
G|--6---6/8----10---8----10b12-----8-----(6)---------------------------------|
D|---------------------------------------------------------------------------|
A|---------------------------------------------------------------------------|
E|---------------------------------------------------------------------------|
       slow slide        slow bend


e|----------------------------------------------------------------------9----|
B|-----------9------9/11----9----11---9------9---9/11---13----11---9---------|
G|--6---6/8------------------------------------------------------------------|
D|---------------------------------------------------------------------------|
A|---------------------------------------------------------------------------|
E|---------------------------------------------------------------------------|

e|-------9-----11----9-------------------------------------------------------|
B|--9------------------------------------------------------------------------|
G|---------------------------------------------------------------------------|
D|---------------------------------------------------------------------------|
A|---------------------------------------------------------------------------|
E|---------------------------------------------------------------------------|


Post Solo Chords 
e|---------------------------------------------------------------------------|
B|---------------------------------------------------------------------------|
G|---6-----------------------------------------------------------------------|
D|---6-------6------4------6-------------------------------------------------|
A|---4-------6------4------6-------------------------------------------------|
E|-----------4------2------4-------------------------------------------------|

    C#5     G#5    F#5    G#5

Outro Chords

e|---------------------------------------------------------------------------|
B|---------------------------------------------------------------------------|
G|---6-----------------------------------------------------------------------|
D|---6----6----3---4-------8-----6------4~-----------------------------------|
A|---4----6----3---4-------8-----6------4~-----------------------------------|
E|--------4----1---2-------6-----4------2~-----------------------------------|

    C#5  G#5   F5 F#5     A#5   G#5    F#5 (let ring)


************************************

| /   slide up
| \   slide down
| h   hammer-on
| p   pull-off
| ~   vibrato
| +   harmonic
| x   Mute note
| b   Bend
| pb  Pre-bend
| br  Bend release
| pbr Pre-bend release
| brb Bend release bend

************************************
Suggest correction new What's this?
You can suggest a correction to this tab. Community and Mods will review your correction and vote to approve or reject it.
comments
We did not receive enough feedback on this tab! Please rate:
print report bad tab
1 2 3 4 5
2 comments total.
0 reply
squintyjoefan 844 wrote on May 18 2013, 11:47 am

Chords played over the solo

e|---------------------------------------------------------------------------|
B|---------------------------------------------------------------------------|
G|---6---------------------------6---------------6---------------------------|
D|---6------6------8-------4-----6---6---3--4----6----6-----4----------------|
A|---4------6------8-------4-----4---6---3--4----4----6-----4----------------|
E|----------4------6-------2---------4---1--2---------4-----2----------------|
strum this to go
into the post solo

Chords just before the outro
(3.10-3.16 in the song)

e|---------------------------------------------------------------------------|
B|---------------------------------------------------------------------------|
G|---6-----------------------------------------------------------------------|
D|---6------6-------3------4-------------------------------------------------|
A|---4------6-------3------2-------------------------------------------------|
E|----------4-------1------2-------------------------------------------------|

0 reply
dougsmells 11 wrote on September 6 2013, 02:46 am

Yo you should try the tab for 101 off of Tall Cans and Loose Ends. Super sick song by them.

guest
You may want to rate the tab now too:
select rating
Please do not post tabs as comments. Select "correction" instead!