Oops, an error
Loading. Please wait.

Let Your Guard Down tab

82 views 1 this week
no commentswrite comment
1 2 3 4 5
3 more votes to show rating
add to favorites
×
Save as Personal and add changes to this tab that will be seen only by you. Learn more ›
×
You can save this tab as Personal to edit and correct it or add notes. All changes will be seen only by you. Learn more »
launch autoscroll
font size
0
reset
how to read this tab
guitar tuner
edit
Autoscroll
slow
fast
+/-
esc
set tempo
stop
G1, G2 and Bass tuned down to Eb. 


[Intro]

G1 Pull slightly sharp

eb|--------------------------------|--------------------------------|
Bb|--------------------------------|--------------------------------|
Gb|16--16--16--16--16--16--16--16--|16--16--16--16--16--16--16--16--|
Db|--------------------------------|--------------------------------|
Ab|14--14--14--14--14--14--14--14--|14--14--14--14--14--14--14--14--|
Eb|--------------------------------|15--15--15--15--12--12--12--12--|
                                    *Use thumb.

eb|--------------------------------|--------------------------------|
Bb|--------------------------------|--------------------------------|
Gb|16--16--16--16--16--16--16--16--|16--16--16--16--16--16--X-X-----|
Db|--------------------------------|------------------------X-X-----|
Ab|14--14--14--14--14--14--14--14--|14--14--14--14--14--14--X-X-----|
Eb|--------------------------------|15--15--15--15--12--12--X-X-----|


[Verse]

G1
eb|--------------------------------|--------------------------------|
Bb|--------------------------------|--------------------------------|
Gb|--------------------------------|7---7---------9---9-9-----------|
Db|9---9-----------9---9-9---------|7---7---------9---9-9-----------|
Ab|9---9-----------9---9-9---------|5---5---------7---7-7-----------| X6
Eb|7---7-----------7---7-7---------|--------------------------------|

G2
eb|--------------------------------|--------------------------------|
Bb|--------------------------------|--------------------------------|
Gb|--------------------------------|7-X-7-X-7-X-X-9-X-9-9-X-9-9-9-9-|
Db|9-X-9-X-9-X-X-9-X-9-9-X-9-9-9-9-|X-X-X-X-X-X-X-X-X-X-X-X-X-X-X-X-| X6
Ab|X-X-X-X-X-X-X-X-X-X-X-X-X-X-X-X-|5-X-5-X-5-X-X-7-X-7-7-X-7-7-7-7-|
Eb|7-X-7-X-7-X-X-7-X-7-7-X-7-7-7-7-|--------------------------------|

Bass
Gb|--------------------------------|--------------------------------|
Db|--------------------------------|--------------------------------|
Ab|--------------------------------|5---5---------7---7-7-----------| X6
Eb|7---7-----------7---7-7---------|--------------------------------|


eb|--------------------------------|--------------------------------|
Bb|--------------------------------|--------------------------------|
Gb|--------------------------------|--------------------------------|
Db|9---9---------9---9-9-----------|5-------5-------7-------X-X-----|
Ab|9---9---------9---9-9-----------|5-------5-------7-------X-X-----|
Eb|7---7---------7---7-7-----------|3-------3-------5-------X-X-----|

eb|--------------------------------|--------------------------------|
Bb|--------------------------------|--------------------------------|
Gb|--------------------------------|--------------------------------|
Db|9---9---------9---9-9-----------|5-------5-------7-------X-X-----|
Ab|9---9---------9---9-9-----------|5-------5-------7-------X-X-----|
Eb|7---7---------7---7-7-----------|3-------3-------5-------X-X-----|

Gb|--------------------------------|--------------------------------|
Db|--------------------------------|--------------------------------|
Ab|--------------------------------|--------------------------------|
Eb|7---7---------7---7-7-----------|3-------3-------5-------X-X-----|


[Chorus]

eb|--------------------------------|--------------------------------|
Bb|--------------------------------|--------------------------------|
Gb|--------------------------------|--------------------------------|
Db|9-----9-------------------------|------------------X-X-X-X-7-----| X2
Ab|9-----9-------------------------|------------------X-X-X-X-7-----|
Eb|7-----7-------------------------|------------------X-X-X-X-5-----|

eb|--------------------------------|--------------------------------|
Bb|12--------------12--------------|15--------------15-14-15-14-----|
Gb|--------------------------------|------14----14--------------14--|
Db|------14~---14~-------14~---14~-|--------------------------------| X2
Ab|--------------------------------|--------------------------------|
Eb|--------------------------------|--------------------------------|

Gb|--------------------------------|--------------------------------|
Db|--------------------------------|--------------------------------|
Ab|--------------------------------|--------------------------------| X2
Eb|7-----7-------------------------|------------------X-X-X-X-5-----|


eb|--------------------------------|--------------------------------|
Bb|--------------------------------|--------------------------------|
Gb|--------------------------------|--------------------------------|
Db|9-----9-----------9-9-9-9-9-----|5-----5-----------X-X-X-X-7-----|
Ab|9-----9-----------9-9-9-9-9-----|5-----5-----------X-X-X-X-7-----|
Eb|7-----7-----------7-7-7-7-7-----|3-----3-----------X-X-X-X-5-----|

 Tremelo pick all double-stops
eb|12-----/15-----\12--------------|-\10--------------12------15----|
Bb|12-----/15-----\12--------------|-\10--------------12------15----|
Gb|--------------------------------|--------------------------------|
Db|--------------------------------|--------------------------------|
Ab|--------------------------------|--------------------------------|
Eb|--------------------------------|--------------------------------|

Gb|--------------------------------|--------------------------------|
Db|--------------------------------|--------------------------------|
Ab|--------------------------------|--------------------------------|
Eb|7-----7-----------7-7-7-7-7-----|3-----3-----------X-X-X-X-5-----|


eb|--------------------------------|--------------------------------|
Bb|--------------------------------|--------------------------------|
Gb|--------------------------------|--------------------------------|
Db|9-----9-----------9-9-9-9-9-----|5-----5-----------X-X-X-X-7-----|
Ab|9-----9-----------9-9-9-9-9-----|5-----5-----------X-X-X-X-7-----|
Eb|7-----7-----------7-7-7-7-7-----|3-----3-----------X-X-X-X-5-----|

                                                    Slide up neck
eb|12-----/15-----\12--------------|-\10--------------//////////////|
Bb|12-----/15-----\12--------------|-\10--------------//////////////|
Gb|--------------------------------|--------------------------------|
Db|--------------------------------|--------------------------------|
Ab|--------------------------------|--------------------------------|
Eb|--------------------------------|--------------------------------|

Gb|--------------------------------|--------------------------------|
Db|--------------------------------|--------------------------------|
Ab|--------------------------------|--------------------------------|
Eb|7-----7-----------7-7-7-7-7-----|3-----3-----------X-X-X-X-5-----|


[Verse]

eb|--------------------------------|--------------------------------|
Bb|--------------------------------|--------------------------------|
Gb|--------------------------------|7---7---------9---9-9-----------|
Db|9---9-----------9---9-9---------|7---7---------9---9-9-----------| X6
Ab|9---9-----------9---9-9---------|5---5---------7---7-7-----------|
Eb|7---7-----------7---7-7---------|--------------------------------|

eb|--------------------------------|--------------------------------|
Bb|--------------------------------|--------------------------------|
Gb|--------------------------------|7-X-7-X-7-X-X-9-X-9-9-X-9-9-9-9-|
Db|9-X-9-X-9-X-X-9-X-9-9-X-9-9-9-9-|X-X-X-X-X-X-X-X-X-X-X-X-X-X-X-X-| X6
Ab|X-X-X-X-X-X-X-X-X-X-X-X-X-X-X-X-|5-X-5-X-5-X-X-7-X-7-7-X-7-7-7-7-|
Eb|7-X-7-X-7-X-X-7-X-7-7-X-7-7-7-7-|--------------------------------|

Gb|--------------------------------|--------------------------------|
Db|--------------------------------|--------------------------------|
Ab|--------------------------------|5---5---------7---7-7-----------| X6
Eb|7---7-----------7---7-7---------|--------------------------------|


eb|--------------------------------|--------------------------------|
Bb|--------------------------------|--------------------------------|
Gb|--------------------------------|--------------------------------|
Db|9---9---------9---9-9-----------|5-------5-------7-------X-X-----|
Ab|9---9---------9---9-9-----------|5-------5-------7-------X-X-----|
Eb|7---7---------7---7-7-----------|3-------3-------5-------X-X-----|

eb|--------------------------------|--------------------------------|
Bb|--------------------------------|--------------------------------|
Gb|--------------------------------|--------------------------------|
Db|9---9---------9---9-9-----------|5-------5-------7-------X-X-----|
Ab|9---9---------9---9-9-----------|5-------5-------7-------X-X-----|
Eb|7---7---------7---7-7-----------|3-------3-------5-------X-X-----|

Gb|--------------------------------|--------------------------------|
Db|--------------------------------|--------------------------------|
Ab|--------------------------------|--------------------------------|
Eb|7---7---------7---7-7-----------|3-------3-------5-------X-X-----|


[Chorus]

eb|--------------------------------|--------------------------------|
Bb|--------------------------------|--------------------------------|
Gb|--------------------------------|--------------------------------|
Db|9-----9-------------------------|------------------X-X-X-X-7-----| X2
Ab|9-----9-------------------------|------------------X-X-X-X-7-----|
Eb|7-----7-------------------------|------------------X-X-X-X-5-----|

eb|--------------------------------|--------------------------------|
Bb|12--------------12--------------|15--------------15-14-15-14-----|
Gb|--------------------------------|------14----14--------------14--|
Db|------14~---14~-------14~---14~-|--------------------------------| X2
Ab|--------------------------------|--------------------------------|
Eb|--------------------------------|--------------------------------|

Gb|--------------------------------|--------------------------------|
Db|--------------------------------|--------------------------------|
Ab|--------------------------------|--------------------------------| X2
Eb|7-----7-------------------------|------------------X-X-X-X-5-----|


eb|--------------------------------|--------------------------------|
Bb|--------------------------------|--------------------------------|
Gb|--------------------------------|--------------------------------|
Db|9-----9-----------9-9-9-9-9-----|5-----5-----------X-X-X-X-7-----|
Ab|9-----9-----------9-9-9-9-9-----|5-----5-----------X-X-X-X-7-----|
Eb|7-----7-----------7-7-7-7-7-----|3-----3-----------X-X-X-X-5-----|

 Tremelo pick all double-stops
eb|12-----/15-----\12--------------|-\10--------------12------15----|
Bb|12-----/15-----\12--------------|-\10--------------12------15----|
Gb|--------------------------------|--------------------------------|
Db|--------------------------------|--------------------------------|
Ab|--------------------------------|--------------------------------|
Eb|--------------------------------|--------------------------------|

Gb|--------------------------------|--------------------------------|
Db|--------------------------------|--------------------------------|
Ab|--------------------------------|--------------------------------|
Eb|7-----7-----------7-7-7-7-7-----|3-----3-----------X-X-X-X-5-----|


eb|--------------------------------|--------------------------------|
Bb|--------------------------------|--------------------------------|
Gb|--------------------------------|--------------------------------|
Db|9-----9-----------9-9-9-9-9-----|5-----5-----------X-X-X-X-7-----|
Ab|9-----9-----------9-9-9-9-9-----|5-----5-----------X-X-X-X-7-----|
Eb|7-----7-----------7-7-7-7-7-----|3-----3-----------X-X-X-X-5-----|
                                                    Slide up neck
eb|12-----/15-----\12--------------|-\10--------------//////////////|
Bb|12-----/15-----\12--------------|-\10--------------//////////////|
Gb|--------------------------------|--------------------------------|
Db|--------------------------------|--------------------------------|
Ab|--------------------------------|--------------------------------|
Eb|--------------------------------|--------------------------------|

Gb|--------------------------------|--------------------------------|
Db|--------------------------------|--------------------------------|
Ab|--------------------------------|--------------------------------|
Eb|7-----7-----------7-7-7-7-7-----|3-----3-----------X-X-X-X-5-----|


[Breakdown]

eb|--------------------------------|
Bb|--------------------------------|
Gb|--------------------------------|
Db|--------------------------------| X8
Ab|-----12h14~12--------12h14~12---|
Eb|12h14--------14p12h14--------14p|

G2 does pick scrapes and other noises throughout. Pitch shift and echo come in on G1 on repeats.

Gb|--------------------------------|--------------------------------|
Db|--------------------------------|--------------------------------|
Ab|2-------------------------------|--------------------------------| X4
Eb|--------0-----------------------|--------------------------------|


G1 and G2 Rest while...

Gb|--------------------------------|--------------------------------|
Db|9-------------------------------|10------------------------------|
Ab|--------7-----------------------|--------7-----------------------|
Eb|--------------------------------|--------------------------------|

Gb|--------------------------------|7-------------------------------|
Db|9-------------------------------|--------------------------------|
Ab|--------7-----------------------|--------7-----------------------|
Eb|--------------------------------|--------------------------------|


G1 and Bass rest while...

eb|--------------------------------|--------------------------------|
Bb|12--------------12--------------|15--------------15-14-15-14-----|
Gb|--------------------------------|------14----14--------------14--|
Db|------14~---14~-------14~---14~-|--------------------------------|
Ab|--------------------------------|--------------------------------|
Eb|--------------------------------|--------------------------------|


eb|--------------------------------|--------------------------------|
Bb|--------------------------------|--------------------------------|
Gb|--------------------------------|--------------------------------|
Db|--------------------------------|5-------5-------7-------X-X-----|
Ab|--------------------------------|5-------5-------7-------X-X-----|
Eb|--------------------------------|3-------3-------5-------X-X-----|

eb|--------------------------------|--------------------------------|
Bb|12--------------12--------------|--------------------------------|
Gb|--------------------------------|--------------------------------|
Db|------14~---14~-------14~---14~-|5-------5-------7-------X-X-----|
Ab|--------------------------------|5-------5-------7-------X-X-----|
Eb|--------------------------------|3-------3-------5-------X-X-----|

Gb|--------------------------------|--------------------------------|
Db|--------------------------------|--------------------------------|
Ab|--------------------------------|--------------------------------|
Eb|--------------------------------|3-------3-------5-------X-X-----|


[Chorus]

eb|--------------------------------|--------------------------------|
Bb|--------------------------------|--------------------------------|
Gb|--------------------------------|--------------------------------|
Db|9-----9-------------------------|------------------X-X-X-X-7-----| X2
Ab|9-----9-------------------------|------------------X-X-X-X-7-----|
Eb|7-----7-------------------------|------------------X-X-X-X-5-----|

eb|--------------------------------|--------------------------------|
Bb|--------------------------------|--------------------------------|
Gb|--------------------------------|--------------------------------|
Db|--------------------------------|--------------------------------| X2
Ab|--------------------------------|--------------------------------|
Eb|--------------------------------|--------------------------------|

Gb|--------------------------------|--------------------------------|
Db|--------------------------------|--------------------------------|
Ab|--------------------------------|--------------------------------| X2
Eb|7-----7-------------------------|------------------X-X-X-X-5-----|


eb|--------------------------------|--------------------------------|
Bb|--------------------------------|--------------------------------|
Gb|--------------------------------|--------------------------------|
Db|9-----9-----------9-9-9-9-9-----|5-----5-----------X-X-X-X-7-----|
Ab|9-----9-----------9-9-9-9-9-----|5-----5-----------X-X-X-X-7-----|
Eb|7-----7-----------7-7-7-7-7-----|3-----3-----------X-X-X-X-5-----|

 Tremelo pick all double-stops
eb|12-----/15-----\12--------------|-\10--------------12------15----|
Bb|12-----/15-----\12--------------|-\10--------------12------15----|
Gb|--------------------------------|--------------------------------|
Db|--------------------------------|--------------------------------|
Ab|--------------------------------|--------------------------------|
Eb|--------------------------------|--------------------------------|

Gb|--------------------------------|--------------------------------|
Db|--------------------------------|--------------------------------|
Ab|--------------------------------|--------------------------------|
Eb|7-----7-----------7-7-7-7-7-----|3-----3-----------X-X-X-X-5-----|


eb|--------------------------------|--------------------------------|
Bb|--------------------------------|--------------------------------|
Gb|--------------------------------|--------------------------------|
Db|9-----9-----------9-9-9-9-9-----|5-----5-----------X-X-X-X-7-----|
Ab|9-----9-----------9-9-9-9-9-----|5-----5-----------X-X-X-X-7-----|
Eb|7-----7-----------7-7-7-7-7-----|3-----3-----------X-X-X-X-5-----|
                                                    Slide up neck
eb|12-----/15-----\12--------------|-\10--------------//////////////|
Bb|12-----/15-----\12--------------|-\10--------------//////////////|
Gb|--------------------------------|--------------------------------|
Db|--------------------------------|--------------------------------|
Ab|--------------------------------|--------------------------------|
Eb|--------------------------------|--------------------------------|

Gb|--------------------------------|--------------------------------|
Db|--------------------------------|--------------------------------|
Ab|--------------------------------|--------------------------------|
Eb|7-----7-----------7-7-7-7-7-----|3-----3-----------X-X-X-X-5-----|


eb|--------------------------------|--------------------------------|
Bb|--------------------------------|--------------------------------|
Gb|--------------------------------|--------------------------------|
Db|9-----9---9-9-9-9-----9---9-9-9-|5-----5---5-5-5-5-5-5-5-5-7-7-7-| X2
Ab|9-----9---9-9-9-9-----9---9-9-9-|5-----5---5-5-5-5-5-5-5-5-7-7-7-|
Eb|7-----7---7-7-7-7-----7---7-7-7-|3-----3---3-3-3-3-3-3-3-3-5-5-5-|

eb|--------------------------------|--------------------------------|
Bb|12--------------12--------------|15--------------15-14-15-14-----|
Gb|--------------------------------|------14----14--------------14--|
Db|------14~---14~-------14~---14~-|--------------------------------| X2
Ab|--------------------------------|--------------------------------|
Eb|--------------------------------|--------------------------------|

Gb|--------------------------------|--------------------------------|
Db|--------------------------------|--------------------------------|
Ab|--------------------------------|--------------------------------| X2
Eb|7-----7---7-7-7-7-----7---7-7-7-|3-----3---3-3-3-3-3-3-3-3-5-5-5-|


eb|--------------------------------|--------------------------------|
Bb|--------------------------------|--------------------------------|
Gb|--------------------------------|--------------------------------|
Db|9-----9---9-9-9-9-----9---9-9-9-|5-----5---5-5-5-5-5-5-5-5-7-7-7-|
Ab|9-----9---9-9-9-9-----9---9-9-9-|5-----5---5-5-5-5-5-5-5-5-7-7-7-|
Eb|7-----7---7-7-7-7-----7---7-7-7-|3-----3---3-3-3-3-3-3-3-3-5-5-5-|

 Tremelo pick all double-stops
eb|12-----/15-----\12--------------|-\10--------------12------15----|
Bb|12-----/15-----\12--------------|-\10--------------12------15----|
Gb|--------------------------------|--------------------------------|
Db|--------------------------------|--------------------------------|
Ab|--------------------------------|--------------------------------|
Eb|--------------------------------|--------------------------------|

Gb|--------------------------------|--------------------------------|
Db|--------------------------------|--------------------------------|
Ab|--------------------------------|--------------------------------|
Eb|7-----7---7-7-7-7-----7---7-7-7-|3-----3---3-3-3-3-3-3-3-3-5-5-5-|


eb|--------------------------------|--------------------------------|
Bb|--------------------------------|--------------------------------|
Gb|--------------------------------|--------------------------------|
Db|9-----9---9-9-9-9-----9---9-9-9-|5-----5---5-5-5-5-5-5-5-5-7-7-7-|
Ab|9-----9---9-9-9-9-----9---9-9-9-|5-----5---5-5-5-5-5-5-5-5-7-7-7-|
Eb|7-----7---7-7-7-7-----7---7-7-7-|3-----3---3-3-3-3-3-3-3-3-5-5-5-|

eb|--------------------------------|-\10--------------//////////////|
Bb|12--------------12--------------|-\10--------------//////////////|
Gb|--------------------------------|--------------------------------|
Db|------14~---14~-------14~---14~-|--------------------------------|
Ab|--------------------------------|--------------------------------|
Eb|--------------------------------|--------------------------------|

Gb|--------------------------------|--------------------------------|
Db|--------------------------------|--------------------------------|
Ab|--------------------------------|--------------------------------|
Eb|7-----7---7-7-7-7-----7---7-7-7-|3-----3---3-3-3-3-3-3-3-3-5-5-5-|

eb|--------------------------------|--------------------------------|
Bb|--------------------------------|--------------------------------|
Gb|--------------------------------|--------------------------------|
Db|9-----9-----------9-9-9-9-9-----|5-----5-----------X-X-X-X-7-----|
Ab|9-----9-----------9-9-9-9-9-----|5-----5-----------X-X-X-X-7-----|
Eb|7-----7-----------7-7-7-7-7-----|3-----3-----------X-X-X-X-5-----|

eb|--------------------------------|--------------------------------|
Bb|--------------------------------|--------------------------------|
Gb|--------------------------------|--------------------------------|
Db|9-----9-----------9-9-9-9-9-----|5-----5-----------X-X-X-X-7-----|
Ab|9-----9-----------9-9-9-9-9-----|5-----5-----------X-X-X-X-7-----|
Eb|7-----7-----------7-7-7-7-7-----|3-----3-----------X-X-X-X-5-----|

Gb|--------------------------------|--------------------------------|
Db|--------------------------------|--------------------------------|
Ab|--------------------------------|--------------------------------|
Eb|7-----7-----------7-7-7-7-7-----|3-----3-----------X-X-X-X-5-----|


eb|--------------------------------|--------------------------------|
Bb|--------------------------------|--------------------------------|
Gb|--------------------------------|--------------------------------|
Db|9-----9-----------9-9-9-9-9-----|5-----------------X-X-X-X-7-----|
Ab|9-----9-----------9-9-9-9-9-----|5-----------------X-X-X-X-7-----|
Eb|7-----7-----------7-7-7-7-7-----|3-----------------X-X-X-X-5-----|

eb|--------------------------------|--------------------------------|
Bb|--------------------------------|--------------------------------|
Gb|--------------------------------|--------------------------------|
Db|9-----9-----------9-9-9-9-9-----|5-----------------X-X-X-X-7-----|
Ab|9-----9-----------9-9-9-9-9-----|5-----------------X-X-X-X-7-----|
Eb|7-----7-----------7-7-7-7-7-----|3-----------------X-X-X-X-5-----|

Gb|--------------------------------|--------------------------------|
Db|--------------------------------|--------------------------------|
Ab|--------------------------------|--------------------------------|
Eb|7-----7-----------7-7-7-7-7-----|3-----------------X-X-X-X-5-----|



************************************

| h  Hammer-on
| p  Pull-off
| b  Bend
| /  Slide up
| \  Slide down
| ~  Vibrato
| X  Dead note

************************************

            
            
Suggest correction
Creating personal tab
Creating personal tab
You can edit any tab online and save it as your Personal.

You can edit, replace or remove any tab part or add personal notes – all changes will be seen only by you.

Personal tabs can be accessed anytime from any device, even offline.
Learn more »
Give kudos to tab author, rate the tab!
1 2 3 4 5
comments
print report bad tab
guest
You may want to rate the tab now too:
select rating
Wanna post a correction for this tab? Suggest correction