Oops, an error
Loading. Please wait.

Paint It Gold tab

22 views 1 this week
no commentswrite comment
1 2 3 4 5
3 more votes to show rating
add to favorites
×
Save as Personal and add changes to this tab that will be seen only by you. Learn more ›
×
You can save this tab as Personal to edit and correct it or add notes. All changes will be seen only by you. Learn more »
launch autoscroll
font size
0
reset
how to read this tab
guitar tuner
edit
Autoscroll
slow
fast
+/-
esc
set tempo
stop
[Intro]

Dip whammy bar after each strummed chord
Eb|2---------------|0---------------|0---------------|0---------------|
Bb|3---------------|2---------------|0---------------|2---------------|
Gb|4---------------|2---------------|1---------------|2---------------|
Db|4---------------|2---------------|2---------------|2---------------|
Ab|2---------------|0---------------|2---------------|0---------------|
Eb|----------------|----------------|----------------|----------------|


Eb|2---------------|0---------------|0---------------|----------------|
Bb|3---------------|2---------------|0---------------|----------------|
Gb|4---------------|2---------------|1---------------|----------------|
Db|4---------------|2---------------|2---------------|----------------|
Ab|2---------------|0---------------|2---------------|----------------|
Eb|----------------|----------------|----------------|----------------|
                                     Second guitar enters on final E chord.


[Pre-Verse]

Eb|----------------|----------------|
Bb|----------------|----------------|
Gb|----------------|----------------|
Db|4-4-4-------4-4-|4---------------| x4
Ab|4-4-4-------4-4-|4---------------|
Eb|2-2-2-------2-2-|2---------------|
  |
Eb|------5-7-5-----|--5-7-5-4-5-4-2-|
Bb|------5-7-5-----|--5-7-5-4-5-4-2-|
Gb|----------------|----------------|
Db|----------------|----------------| x4
Ab|----------------|----------------|
Eb|----------------|----------------|


[Verse]

Eb|----------------|----------------|
Bb|----------------|----------------|
Gb|7-7-7-7-7-7-7-7\|6-6-6-6-6-6-6-6/|
Db|----------------|----------------| x3
Ab|5-5-5-5-5-5-5-5\|4-4-4-4-4-4-4-4/|
Eb|----------------|----------------|
  |
Eb|----------------|----------------|
Bb|----------------|----------------|
Gb|7-7-7-7-7-7-7-7\|6-6-6-6-6-6-6-6/|
Db|----------------|----------------| x3
Ab|5-5-5-5-5-5-5-5\|4-4-4-4-4-4-4-4/|
Eb|----------------|----------------|


Eb|----------------|----------------|
Bb|----------------|----------------|
Gb|7-7-7-7-7-7-7-7-|7/9-9-9-9-9-9-9-|
Db|----------------|----------------|
Ab|5-5-5-5-5-5-5-5-|5/7-7-7-7-7-7-7-|
Eb|----------------|----------------|
  |
Eb|----------------|----------------|
Bb|----------------|----------------|
Gb|7-7-7-7-7-7-7-7-|7/9-9-9-9-9-9-9-|
Db|----------------|----------------|
Ab|5-5-5-5-5-5-5-5-|5/7-7-7-7-7-7-7-|
Eb|----------------|----------------|


[Pre-Chorus]

Eb|----------------|----------------|----------------|----------------|
Bb|----------------|----------------|7---7-----7---7-|--7-7-7-7-7-7-7-|
Gb|----------------|----------------|----------------|----------------|
Db|9---9-----9---9-|--9-9-9-9-9-9-9-|----------------|----------------|
Ab|----------------|----------------|9---9-----9---9-|--9-9-9-9-9-9-9-|
Eb|7---7-----7---7-|--7-7-7-7-7-7-7-|----------------|----------------|
  |
Eb|----------------|----------------|----------------|----------------|
Bb|----------------|----------------|7---7-----7---7-|--7-7-7-7-7-7-7-|
Gb|----------------|----------------|----------------|----------------|
Db|9---9-----9---9-|--9-9-9-9-9-9-9-|----------------|----------------|
Ab|----------------|----------------|9---9-----9---9-|--9-9-9-9-9-9-9-|
Eb|7---7-----7---7-|--7-7-7-7-7-7-7-|----------------|----------------|

                                     PM and gradually lighten
Eb|----------------|----------------|----------------|----------------|
Bb|4---4-----4---4-|--4-4-4-4-4-4-4-|----------------|----------------|
Gb|----------------|----------------|6---6-6-6-6-6-6-|5-5-5-5-5-5-----|
Db|----------------|----------------|6---6-6-6-6-6-6-|5-5-5-5-5-5-----|
Ab|6---6-----6---6-|--6-6-6-6-6-6-6-|4---4-4-4-4-4-4-|3-3-3-3-3-3-----|
Eb|----------------|----------------|----------------|----------------|
  |                                  PM and gradually lighten
Eb|----------------|----------------|----------------|----------------|
Bb|4---4-----4---4-|--4-4-4-4-4-4-4-|----------------|----------------|
Gb|----------------|----------------|6---6-6-6-6-6-6-|5-5-5-5-5-5-----|
Db|----------------|----------------|6---6-6-6-6-6-6-|5-5-5-5-5-5-----|
Ab|6---6-----6---6-|--6-6-6-6-6-6-6-|4---4-4-4-4-4-4-|3-3-3-3-3-3-----|
Eb|----------------|----------------|----------------|----------------|


[Chorus]

Dip whammy bar after each strummed chord
Eb|2---------------|----------------|0---------------|----------------|
Bb|3---------------|----------------|2---------------|----------------|
Gb|4---------------|----------------|2---------------|----------------|
Db|4---------------|----------------|2---------------|----------------|
Ab|2---------------|----------------|0---------------|----------------|
Eb|----------------|----------------|----------------|----------------|
  |
Eb|----------------|----------------|----------------|----------------|
Bb|----------------|----------------|----------------|----------------|
Gb|----------------|----------------|----------------|----------------|
Db|----------------|----------------|----------------|----------------|
Ab|9-9-9-9-9-9-9-9-|9-9-9-9-9-9-9-9-|7-7-7-7-7-7-7-7-|7-7-7-7-7-7-7-7-|
Eb|7-7-7-7-7-7-7-7-|7-7-7-7-7-7-7-7-|5-5-5-5-5-5-5-5-|5-5-5-5-5-5-5-5-|
                                                                        
                                                                        x2
                                                                        
Eb|0---------------|----------------|0---------------|----------------|
Bb|0---------------|----------------|2---------------|----------------|
Gb|1---------------|----------------|2---------------|----------------|
Db|2---------------|----------------|2---------------|----------------|
Ab|2---------------|----------------|0---------------|----------------|
Eb|----------------|----------------|----------------|----------------|
  |
Eb|----------------|----------------|----------------|----------------|
Bb|----------------|----------------|----------------|----------------|
Gb|----------------|----------------|----------------|----------------|
Db|----------------|----------------|----------------|----------------|
Ab|2-2-2-2-2-2-2-2-|2-2-2-2-2-2-2-2-|7-7-7-7-7-7-7-7-|7-7-7-7-7-7-7-7-|
Eb|0-0-0-0-0-0-0-0-|0-0-0-0-0-0-0-0-|5-5-5-5-5-5-5-5-|5-5-5-5-5-5-5-5-|


[Pre-Verse]

Eb|----------------|----------------|
Bb|----------------|----------------|
Gb|----------------|----------------|
Db|4-4-4-------4-4-|4---------------| x2
Ab|4-4-4-------4-4-|4---------------|
Eb|2-2-2-------2-2-|2---------------|
  |
Eb|------5-7-5-----|--5-7-5-4-5-4-2-|
Bb|------5-7-5-----|--5-7-5-4-5-4-2-|
Gb|----------------|----------------|
Db|----------------|----------------| x2
Ab|----------------|----------------|
Eb|----------------|----------------|


[Verse]

Eb|----------------|----------------|
Bb|----------------|----------------|
Gb|7-7-7-7-7-7-7-7\|6-6-6-6-6-6-6-6/|
Db|----------------|----------------| x3
Ab|5-5-5-5-5-5-5-5\|4-4-4-4-4-4-4-4/|
Eb|----------------|----------------|
  |
Eb|----------------|----------------|
Bb|----------------|----------------|
Gb|7-7-7-7-7-7-7-7\|6-6-6-6-6-6-6-6/|
Db|----------------|----------------| x3
Ab|5-5-5-5-5-5-5-5\|4-4-4-4-4-4-4-4/|
Eb|----------------|----------------|


Eb|----------------|----------------|
Bb|----------------|----------------|
Gb|7-7-7-7-7-7-7-7-|7/9-9-9-9-9-9-9-|
Db|----------------|----------------|
Ab|5-5-5-5-5-5-5-5-|5/7-7-7-7-7-7-7-|
Eb|----------------|----------------|
  |
Eb|----------------|----------------|
Bb|----------------|----------------|
Gb|7-7-7-7-7-7-7-7-|7/9-9-9-9-9-9-9-|
Db|----------------|----------------|
Ab|5-5-5-5-5-5-5-5-|5/7-7-7-7-7-7-7-|
Eb|----------------|----------------|


[Pre-Chorus]

Eb|----------------|----------------|----------------|----------------|
Bb|----------------|----------------|7---7-----7---7-|--7-7-7-7-7-7-7-|
Gb|----------------|----------------|----------------|----------------|
Db|9---9-----9---9-|--9-9-9-9-9-9-9-|----------------|----------------|
Ab|----------------|----------------|9---9-----9---9-|--9-9-9-9-9-9-9-|
Eb|7---7-----7---7-|--7-7-7-7-7-7-7-|----------------|----------------|
  |
Eb|----------------|----------------|----------------|----------------|
Bb|----------------|----------------|7---7-----7---7-|--7-7-7-7-7-7-7-|
Gb|----------------|----------------|----------------|----------------|
Db|9---9-----9---9-|--9-9-9-9-9-9-9-|----------------|----------------|
Ab|----------------|----------------|9---9-----9---9-|--9-9-9-9-9-9-9-|
Eb|7---7-----7---7-|--7-7-7-7-7-7-7-|----------------|----------------|

                                     PM and gradually lighten
Eb|----------------|----------------|----------------|----------------|
Bb|4---4-----4---4-|--4-4-4-4-4-4-4-|----------------|----------------|
Gb|----------------|----------------|6---6-6-6-6-6-6-|5-5-5-5-5-5-5-5-|
Db|----------------|----------------|6---6-6-6-6-6-6-|5-5-5-5-5-5-5-5-|
Ab|6---6-----6---6-|--6-6-6-6-6-6-6-|4---4-4-4-4-4-4-|3-3-3-3-3-3-3-3-|
Eb|----------------|----------------|----------------|----------------|
  |                                  PM and gradually lighten
Eb|----------------|----------------|----------------|----------------|
Bb|4---4-----4---4-|--4-4-4-4-4-4-4-|----------------|----------------|
Gb|----------------|----------------|6---6-6-6-6-6-6-|5-5-5-5-5-5-5-5-|
Db|----------------|----------------|6---6-6-6-6-6-6-|5-5-5-5-5-5-5-5-|
Ab|6---6-----6---6-|--6-6-6-6-6-6-6-|4---4-4-4-4-4-4-|3-3-3-3-3-3-3-3-|
Eb|----------------|----------------|----------------|----------------|


[Chorus]

Dip whammy bar after each strummed chord
Eb|2---------------|----------------|0---------------|----------------|
Bb|3---------------|----------------|2---------------|----------------|
Gb|4---------------|----------------|2---------------|----------------|
Db|4---------------|----------------|2---------------|----------------|
Ab|2---------------|----------------|0---------------|----------------|
Eb|----------------|----------------|----------------|----------------|
  |
Eb|----------------|----------------|----------------|----------------|
Bb|----------------|----------------|----------------|----------------|
Gb|----------------|----------------|----------------|----------------|
Db|----------------|----------------|----------------|----------------|
Ab|9-9-9-9-9-9-9-9-|9-9-9-9-9-9-9-9-|7-7-7-7-7-7-7-7-|7-7-7-7-7-7-7-7-|
Eb|7-7-7-7-7-7-7-7-|7-7-7-7-7-7-7-7-|5-5-5-5-5-5-5-5-|5-5-5-5-5-5-5-5-|
                                                                        
                                                                        x2
                                                                        
Eb|0---------------|----------------|0---------------|----------------|
Bb|0---------------|----------------|2---------------|----------------|
Gb|1---------------|----------------|2---------------|----------------|
Db|2---------------|----------------|2---------------|----------------|
Ab|2---------------|----------------|0---------------|----------------|
Eb|----------------|----------------|----------------|----------------|
  |
Eb|----------------|----------------|----------------|----------------|
Bb|----------------|----------------|----------------|----------------|
Gb|----------------|----------------|----------------|----------------|
Db|----------------|----------------|----------------|----------------|
Ab|2-2-2-2-2-2-2-2-|2-2-2-2-2-2-2-2-|7-7-7-7-7-7-7-7-|7-7-7-7-7-7-7-7-|
Eb|0-0-0-0-0-0-0-0-|0-0-0-0-0-0-0-0-|5-5-5-5-5-5-5-5-|5-5-5-5-5-5-5-5-|


[Breakdown]

Eb|----------------|----------------|----------------|----------------|
Bb|----------------|----------------|----------------|----------------|
Gb|----------------|----------------|----------------|----------------|
Db|----------------|----------------|----------------|--------X-X-X-X-|
Ab|------3~--------|--5~--------6~--|------3~--------|--5~----X-X-X-X-|
Eb|1-3-4-------1-3-|4-----1-3-4-----|1-3-4-------1-3-|4-------X-X-X-X-|
  |
Eb|----------------|----------------|----------------|----------------|
Bb|----------------|----------------|----------------|----------------|
Gb|----------------|----------------|----------------|----------------|
Db|----------------|----------------|----------------|--------X-X-X-X-|
Ab|------3~--------|--5~--------6~--|------3~--------|--5~----X-X-X-X-|
Eb|1-3-4-------1-3-|4-----1-3-4-----|1-3-4-------1-3-|4-------X-X-X-X-|


Eb|----------------|----------------|----------------|----------------|
Bb|----------------|----------------|----------------|----------------|
Gb|----------------|----------------|----------------|----------------|
Db|----------------|----------------|----------------|--------X-X-X-X-|
Ab|------3~--------|--5~--------6~--|------3~--------|--5~----X-X-X-X-|
Eb|1-3-4-------1-3-|4-----1-3-4-----|1-3-4-------1-3-|4-------X-X-X-X-|
  |
Eb|----------------|----------------|----------------|----------------|
Bb|----------------|----------------|----------------|----------------|
Gb|----------------|----------------|----------------|----------------|
Db|------1~--------|--3~--------4~--|------2~--------|--4~----X-X-X-X-|
Ab|----------------|----------------|----------------|--------X-X-X-X-|
Eb|1-3-4-------1-3-|4-----1-3-4-----|1-3-4-------1-3-|4-------X-X-X-X-|


[Drum Break/Pre-Chorus]

Eb|----------------|----------------|----------------|----------------|
Bb|----------------|----------------|----------------|----------------|
Gb|----------------|----------------|----------------|----------------|
Db|----------------|----------------|----------------|----------------|
Ab|----------------|----------------|----------------|----------------|
Eb|----------------|----------------|----------------|----------------|
  |
Eb|----------------|----------------|----------------|----------------|
Bb|----------------|----------------|----------------|----------------|
Gb|----------------|----------------|----------------|----------------|
Db|----------------|----------------|----------------|----------------|
Ab|----------------|----------------|----------------|----------------|
Eb|----------------|----------------|----------------|----------------|

                                     PM and gradually lighten
Eb|----------------|----------------|----------------|----------------|
Bb|----------------|----------------|----------------|----------------|
Gb|----------------|----------------|6---6-6-6-6-6-6-|5-5-5-5-5-------|
Db|----------------|----------------|6---6-6-6-6-6-6-|5-5-5-5-5-------|
Ab|----------------|----------------|4---4-4-4-4-4-4-|3-3-3-3-3-------|
Eb|----------------|----------------|----------------|----------------|
  |                                  PM and gradually lighten
Eb|----------------|----------------|----------------|----------------|
Bb|----------------|----------------|----------------|----------------|
Gb|----------------|----------------|6---6-6-6-6-6-6-|5-5-5-5-5-------|
Db|----------------|----------------|6---6-6-6-6-6-6-|5-5-5-5-5-------|
Ab|----------------|----------------|4---4-4-4-4-4-4-|3-3-3-3-3-------|
Eb|----------------|----------------|----------------|----------------|


[Chorus]
Dip whammy bar after each strummed chord
Eb|2---------------|----------------|0---------------|----------------|
Bb|3---------------|----------------|2---------------|----------------|
Gb|4---------------|----------------|2---------------|----------------|
Db|4---------------|----------------|2---------------|----------------|
Ab|2---------------|----------------|0---------------|----------------|
Eb|----------------|----------------|----------------|----------------|
  |
Eb|----------------|----------------|----------------|----------------|
Bb|----------------|10----8-----7---|----------------|10----8-----7---|
Gb|7---------------|----------------|----------------|----------------|
Db|----------------|----------------|----------------|----------------|
Ab|----------------|----------------|----------------|----------------|
Eb|----------------|----------------|----------------|----------------|
  |
Eb|----------------|----------------|----------------|----------------|
Bb|----------------|----------------|----------------|----------------|
Gb|----------------|----------------|----------------|----------------|
Db|----------------|----------------|----------------|----------------|
Ab|9-9-9-9-9-9-9-9-|9-9-9-9-9-9-9-9-|7-7-7-7-7-7-7-7-|7-7-7-7-7-7-7-7-|
Eb|7-7-7-7-7-7-7-7-|7-7-7-7-7-7-7-7-|5-5-5-5-5-5-5-5-|5-5-5-5-5-5-5-5-|
                                                                        
                                                                        X2
                                                                        
Eb|0---------------|----------------|0---------------|----------------|
Bb|0---------------|----------------|2---------------|----------------|
Gb|1---------------|----------------|2---------------|----------------|
Db|2---------------|----------------|2---------------|----------------|
Ab|2---------------|----------------|0---------------|----------------|
Eb|----------------|----------------|----------------|----------------|
  |
Eb|----------------|----------------|----------------|----------------|
Bb|----------------|----------------|----------------|7-------7b8r7---|
Gb|----------------|6------7--------|9---------------|----------------|
Db|----------------|----------------|----------------|----------------|
Ab|----------------|----------------|----------------|----------------|
Eb|----------------|----------------|----------------|----------------|
  |
Eb|----------------|----------------|----------------|----------------|
Bb|----------------|----------------|----------------|----------------|
Gb|----------------|----------------|----------------|----------------|
Db|----------------|----------------|----------------|----------------|
Ab|2-2-2-2-2-2-2-2-|2-2-2-2-2-2-2-2-|7-7-7-7-7-7-7-7-|7-7-7-7-7-7-7-7-|
Eb|0-0-0-0-0-0-0-0-|0-0-0-0-0-0-0-0-|5-5-5-5-5-5-5-5-|5-5-5-5-5-5-5-5-|


[Outro]

Eb|----------------|----------------|
Bb|----------------|----------------|
Gb|----------------|----------------|
Db|4-4-4-------4-4-|4---------------| x2
Ab|4-4-4-------4-4-|4---------------|
Eb|2-2-2-------2-2-|2---------------|
  |
Eb|------5-7-5-----|--5-7-5-4-5-4-2-|
Bb|------5-7-5-----|--5-7-5-4-5-4-2-|
Gb|----------------|----------------|
Db|----------------|----------------| x2
Ab|----------------|----------------|
Eb|----------------|----------------|


Eb|----------------|----------------|
Bb|----------------|----------------|
Gb|----------------|----------------|
Db|4-4-4-------4-4-|4---------------|
Ab|4-4-4-------4-4-|4---------------|
Eb|2-2-2-------2-2-|2---------------|
  |
Eb|----------------|----------------|
Bb|----------------|----------------|
Gb|----------------|----------------|
Db|----------------|----------------|
Ab|------7-9-7-----|--7-9-7-6-7-6-4-|
Eb|------5-7-5-----|--5-7-5-4-5-4-2-|
 
                        Let ring  
Eb|----------------|----------------|
Bb|----------------|----------------|
Gb|----------------|----------------|
Db|4-4-4-------4-4-|4---------------|
Ab|4-4-4-------4-4-|4---------------|
Eb|2-2-2-------2-2-|2---------------|
  |                     Let ring  
Eb|----------------|----------------|
Bb|----------------|----------------|
Gb|----------------|----------------|
Db|4-4-4-------4-4-|4---------------|
Ab|4-4-4-------4-4-|4---------------|
Eb|2-2-2-------2-2-|2---------------|



************************************

| r  Release
| b  Bend
| X  dead note
| /  Slide up
| \  Slide down
| ~  Vibrato

************************************

            
            
Suggest correction
Creating personal tab
Creating personal tab
You can edit any tab online and save it as your Personal.

You can edit, replace or remove any tab part or add personal notes – all changes will be seen only by you.

Personal tabs can be accessed anytime from any device, even offline.
Learn more »
Give kudos to tab author, rate the tab!
1 2 3 4 5
comments
print report bad tab
guest
You may want to rate the tab now too:
select rating
Wanna post a correction for this tab? Suggest correction