Oops, an error
Loading. Please wait.

Deepest Cut Bass Tab

version 1
version 1

Whole song

1,193 views 1 this week
no commentswrite comment
1 2 3 4 5
please rate
add to favorites
launch autoscroll
font size
0
reset
guitar tuner
Tab Pro tools
  • play this tab
  • loop segment
  • change instrument
  • show fretboard
  • metronome
×
Best way to learn
"Deepest Cut"
Autoscroll
slow
fast
+/-
esc
set tempo
stop
Contributor
Difficulty
Tuning
intermediate
D A D G B E
-----------------------------------------------------------------------------
			     Deepest Cut - Get Scared
-----------------------------------------------------------------------------

Tabbed By : Cassi


Tuning:Drop D

Intro (0:00-0:11)
G|--------------------------------------------------------------------------|
D|--------------------------------------------------------------------------|
A|-------------333-22222222-------------333-2222----------------------------|
D|22-4-55555424------------22-4-55555424--------54242-----------------------|

Verse (0:11-0:40)
G|---------------------------------------------------------------------------|
D|---------------------------------------------------------------------------|
A|----------3----3-----------3----3----0--0--2--2--0--0--2-------------------|
D|2----2----------2----2---5-------------------------------------------------|

Chorus (0:41-1:07)
G|---------------------------------------------------------------------------|
D|---------------------------------------------------------------------------|
A|-------------3-3333-3-3333--------------3-3333-3-3333-------------33333-2--|
D|2-2222-5-5555-------------2-2222-5-5555--------------222222-555555---------|

G|---------------------------------------------------------------------------|
D|---------------------------------------------------------------------------|
A|-------------333-2222------------------------------------------------------|
D|22-4-5555542---------54----------------------------------------------------|

Verse (1:08-1:37)
G|---------------------------------------------------------------------------|
D|---------------------------------------------------------------------------|
A|----------3----3--------------------333333-33333----0--0--2--2--0--0--2----|
D|2----2--5--------2222222-222222---55---------------------------------------|

Chorus (1:38-1:59)
G|---------------------------------------------------------------------------|
D|---------------------------------------------------------------------------|
A|-------------3-3333-3-3333--------------3-3333-3-3333-------------33333-2--|
D|2-2222-5-5555-------------2-2222-5-5555--------------222222-555555---------|

Bridge (1:59-2:35)
G|---------------------------------------------------------------------------|
D|---------------------------------------------------------------------------|
A|323232323232323232---------------------------------------------------------|
D|---------------------------------------------------------------------------|

Chorus (2:36-2:57)
G|---------------------------------------------------------------------------|
D|---------------------------------------------------------------------------|
A|-------------3-3333-3-3333--------------3-3333-3-3333-------------33333-2--|
D|2-2222-5-5555-------------2-2222-5-5555--------------222222-555555---------|

Outro (2:58-end)
G|---------------------------------------------------------------------------|
D|---------------------------------------------------------------------------|
A|-------------333-22222222-------------333-2222-----------------------------|
D|22-4-55555424------------22-4-55555424-------------------------------------|



| /  slide up
| \  slide down
| h  hammer-on
| p  pull-off
| ~  vibrato
| +  harmonic
| x  Mute note
===============================================================================
comments
We did not receive enough feedback on this tab! Please rate:
print report bad tab
1 2 3 4 5
I want to post or [tab]
guest
You may want to rate the tab now too:
select rating
Please do not post tabs as comments. Select "correction" instead!