Oops, an error
Loading. Please wait.

Deepest Cut Tab

3,180 views 3 this week
2 commentsread comments
1 2 3 4 5
worth learning
x 4
add to favorites
launch autoscroll
font size
0
reset
how to read this tab
guitar tuner
Autoscroll
slow
fast
+/-
esc
set tempo
stop
Help us to improve Ultimate-Guitar.com Take our survey!
×
Author
Difficulty
Tuning
intermediate
D A D G B E
TUNING: DROP D


INTRO

D-----------------------------------------------------------------------|
A-----------------------------------------------------------------------|
D-----------------------------------------------------------------------|
G-----------------------------------------------------------------------|
B-----------------------5-4-5-------------------------5-4-5-~7-5/////3--|
E-0-8-0-0-7-3-5-3-2-5-2-------2-0-8-0-0-7-3-5-3-2-5-2-------------------|

D------------------------------|
A------------------------------|
D------------------------------|
G------------------------------|
B-7-8---8-7-8---8-7-8----------|
E-----7-------7-------7---ECT--|
  THE KNIFE IS PLANTED IN MY BACK...
D-------7-----------9--|
A-------7-----------9--|
D-------7-----------9--|
G----------------------|
B----------------------|
E----------------------|

I'M THE DEEPEST CUT, I'M THE DEEPEST WOUND, I'M THE DEEPEST LIE...
D-----------------------------------------------------------10---------------------|
A----------7---------------------------10-------------------10---------------------|
D----------9---------------------------12-------------------10---------------------|
G----------9---------------------------12------------------------------------------|
B----------------------------------------------------------------------------------|
E----------------------------------------------------------------------------------|

I'M BLEEDING, I'M BLEEDING NOW, I'M BLEEDING, I'M THE ONE THAT ALWAYS...
D--2-----------5------------------------------------------------------------------|
A--2-----------5-----------------------3---------------------------2--------------|
D--2-----------5-----------------------5---------------------------4--------------|
G--------------------------------------5---------------------------4--------------|
B---------------------------------------------------------------------------------|
E---------------------------------------------------------------------------------|

(INTRO) (VERSE) (CHORUS)

YOU!
D--7-9-10-7-9-10--6-8-9-6-8-9---(REPEAT ECT)----7-8-7-8-7--------------------------|
A-----------------------------------------------7-8-7-8-7--------------------------|
D-----------------------------------------------7-8-7-8-7--------------------------|
G----------------------------------------------------------------------------------|
B----------------------------------------------------------------------------------|
E----------------------------------------------------------------------------------|

...I'M THE DEEPEST CUT (VERSE)

END D-----------------------------------------------------------|
A---------------------------------------------------------------|
D---------------------------------------------------------------|
G---------------------------------------------------------------|
B-----------------------5-4-5-------------------------5-4-5-~7--|
E-0-8-0-0-7-3-5-3-2-5-2-------2-0-8-0-0-7-3-5-3-2-5-2-----------|
Suggest correction
comments
print report bad tab
2 comments total.
+3 reply
robbie.thecloud 67 wrote on August 22 2012, 05:58 pm

u know u posted it upsidedown right lol XD

+2 reply
Audible Warfare 805 wrote on September 12 2012, 12:31 am

Tab it right and I'll rate it lol.

guest
You may want to rate the tab now too:
select rating
Wanna post a correction for this tab? Suggest correction