Oops, an error
Loading. Please wait.

Fail Bass Tab

1,517 views 1 this week
no commentswrite comment
1 2 3 4 5
x 5
add to favorites
launch autoscroll
font size
0
reset
guitar tuner
Autoscroll
slow
fast
+/-
esc
set tempo
stop
Help us to improve Ultimate-Guitar.com Take our survey!
×
Author
Tuning
C# G# C# F# A# D#
-------------------------------------------------------------------------------
			     FAIL - Get Scared.
-------------------------------------------------------------------------------

Tabbed By : mariewong.





Tuning: Drop C#.





Intro [00:00]

F#|-------------------------------------------|
C#|-------------------------------------------|
G#|----------------------------------1--------|
C#|--/11\----1-4-3-4-1-4-3-0-1-4-3-1---4-3-0--|

F#|-----------------------------------|
C#|-----------------------------------|
G#|-----------------------------------|
C#|--1-4-3-4-1-4-3-0-1-4-3-1-0-0-1-3--|



Verse [00:09]

F#|-----------------------------------------------------------------|
C#|-----------------------------------------------------------------|
G#|------------------------------------------------2-2-2-2-1--------|  [x2]
C#|--1--0-1--3-4-1--9--8--6-8-3-4---1--0-1--3-4-1------------1-3-4--|

F#|--------------------------------|
C#|--------------------------------|
G#|--------------------------------|
C#|--1-1-1-1-1-3-4-1--9-9-9-9-11\--|



Chorus [00:32]

F#|-------------------------------------------------------------------|
C#|-------------------------------------------------------------------|
G#|---------2(x8)-------------------------2(x8)---------1(x5)---------|
C#|--1(x8)---------4(x8)--6(x8)----1(x8)---------4(x8)---------1-3-4--|

F#|-----------------------------------|
C#|-----------------------------------|
G#|-----------------------------------|
C#|--1-4-3-4-1-4-3-0-1-4-3-1-0-0-1-3--|



Verse [00:55]

F#|-----------------------------------------------------------------|
C#|-----------------------------------------------------------------|
G#|------------------------------------------------2-2-2-4----------|  [x2]
C#|--1--0-1--3-4-1--9--8--6-8-3-4---1--0-1--3-4-1----------6-8-6-4--|

F#|--------------------------------|
C#|--------------------------------|
G#|--------------------------------|
C#|--1-1-1-1-1-3-4-1--9-9-9-9-11\--|



Chorus [01:17]

F#|-------------------------------------------------------------------------|
C#|-------------------------------------------------------------------------|
G#|---------------2(x8)-------------------------2(x8)---------1(x5)---------|
C#|--xxxx--1(x8)---------4(x8)--6(x8)----1(x8)---------4(x8)---------1-3-4--|



Bridge [01:36]

F#|---------------------------------------------------------------------------|
C#|---------------------------------------------------------------------------|
G#|------------------------------------4(x12)-4-4h6p4-\1--2(x16)--1(x12)------|
C#|--1-1-1-1-3-1-3-4--4-4-4-4-6-6-6-6------------------------------------4-3--|

F#|----------------------------------------------------|
C#|----------------------------------------------------|
G#|----------------------------------------------------|
C#|--1--0-1--3-4-1--9--8--6-8-3-4---1--0-1--3-4-1--9\--|



Chorus [02:02]

F#|---------------------------------------------------------------------------|
C#|---------------------------------------------------------------------------|
G#|--------------2(x8)-----------------------------------2(x8)---------1(x8)--|
C#|--/9\--1(x8)---------4(x8)--6(x4)--6/8-6-3-4---1(x8)---------4(x8)---------|

F#|----------------------------------------|
C#|----------------------------------------|
G#|----------------2-1----2-2-2-2----------|
C#|--1-1-/4\-1-1-3----------------6-4-6-4--|

F#|----------------------------------------|
C#|----------------------------------------|
G#|---------------------4-4-4-4-4-4h6p4-1--|
C#|--4-4-4-4-4-6-8-4-----------------------|

F#|------------------------------------------------------------|
C#|------------------------------------------------------------|
G#|-----------------------------------4--------1(x4)-----------|
C#|--1(x8)--9(x4)--4/6\4-4-4----4(x4)---4-4-4---------1-3-1-0--|

F#|-----------------------------------|
C#|-----------------------------------|
G#|--------------------------1--------|
C#|--1-4-3-4-1-4-3-0-1-4-3-1---4-3-0--|

F#|---------------------------------------|
C#|---------------------------------------|
G#|---------------------------------------|
C#|--1-4-3-4-1-4-3-0-1-4-3-1-0-0-1-3-1\---|





| /  slide up
| \  slide down
| h  hammer-on
| p  pull-off
| ~  vibrato
| +  harmonic
| x  Mute note
===============================================================================
Suggest correction
comments
print report bad tab
guest
You may want to rate the tab now too:
select rating
Wanna post a correction for this tab? Suggest correction