Oops, an error
Loading. Please wait.

Hurt Bass Tab

version 1
version 1

Whole song

1,096 views 3 this week
no commentswrite comment
1 2 3 4 5
please rate
add to favorites
launch autoscroll
font size
0
reset
guitar tuner
Tab Pro tools
  • play this tab
  • loop segment
  • change instrument
  • show fretboard
  • metronome
×
Best way to learn
"Hurt"
Autoscroll
slow
fast
+/-
esc
set tempo
stop
Contributor
Tuning
D A D G B E
-------------------------------------------------------------------------------
			     HURT - Get Scared.
-------------------------------------------------------------------------------

Tabbed By : mariewong.





Tuning: Standard.





Intro [00:09]

G|------------------------------|
D|------------------------------|
A|------------------------------|   [x2]
D|--5(x4)--3(x4)--1(x4)--3(x4)--|



Verse [00:22]

G|-----------------------------|
D|-----------------------------|
A|-----------------------------|   [x4]
D|--5-5~---3-3~---1-1~---3-3~--|

G|-----------------|
D|-----------------|
A|-----------------|
D|--1(x8)---3(x7)--|



Chorus [00:56]

G|------------------------------|
D|------------------------------|
A|------------------------------| 
D|--5(x4)--3(x4)--1(x4)--3(x4)--|

G|--------------------------------|
D|--------------------------------|
A|--------------------------------|  
D|--5(x4)--3(x4)--1(x4)--3333-x3--|

G|------------------------------|
D|------------------------------|
A|------------------------------| 
D|--5(x4)--3(x4)--1(x8)--3(x8)--|

G|----------------------------------|
D|----------------------------------|
A|----------------------------------| 
D|--5(x4)--3(x4)--1(x4)--3-3~-3333--|



Verse [01:28]

G|-----------------------------|
D|-----------------------------|
A|-----------------------------|  
D|--5-5~---3-3~---1-1~---3-3~--|

G|--------------------------------------|
D|--------------------------------------|
A|--------------------------------------|  
D|--5-5~---3-3~---1-1~---3-3~--3-0-3-0--|

G|-----------------------------------|
D|-----------------------------------|
A|-----------------------------------|  
D|--5-5~---3-3~---1-1~---3-3~--3/8\--|

G|-----------------------------------|
D|-----------------------------------|
A|-----------------------------------|  
D|--5-5~---3-3~---1-1~---3-3~--5-8\--|

G|------------------|
D|------------------|
A|------------------|
D|--1(x8)---3(x14)--|



Chorus [02:01]

G|------------------------------|
D|------------------------------|
A|------------------------------| 
D|--5(x4)--3(x4)--1(x4)--3(x4)--|

G|-----------------------------------|
D|-----------------------------------|
A|-----------------------------------|  
D|--5(x4)--3(x4)--1(x4)--3333-0/3\0--|

G|-----------------------------------|
D|-----------------------------------|
A|-----------------------------------| 
D|--5(x4)--3(x4)--1(x8)--3(x12)--x3--|



Bridge [02:27]

G|---------------------------------------------------------|
D|---------------------------------------------------------|
A|---------------------------------------------------------|
D|--5-5~--55-5~---888~--88-8~---3-3~--33-3~---111~--1-1-1--|

G|---------------------------------------------------------|
D|---------------------------------------------------------|
A|---------------------------------------------------------|
D|--555~--55-5~---888~--88-8~---333~--33-3~---111~--1-1-1--|

G|-----------------|
D|-----------------|
A|-----------------|
D|--1(x8)---3(x7)--|



Chorus [03:06]

G|--------------------|
D|--------------------|
A|--------------------| 
D|--1(x4)--33-3~--x3--|

G|-----------------------------------|
D|-----------------------------------|
A|-----------------------------------|  
D|--5(x4)--3(x4)--1(x4)--3333-0/3\0--|

G|------------------------------|
D|------------------------------|
A|------------------------------| 
D|--5(x4)--3(x4)--1(x8)--3(x8)--|

G|-------------------------------------|
D|-------------------------------------|
A|-------------------------------------| 
D|--5(x4)--7-7--77-33--1(x4)--3-3~-x3--|

G|-----------------------------------|
D|-----------------------------------|
A|-----------------------------------|  
D|--5(x4)--3(x4)--1(x4)--3333-0/3\0--|

G|------------------------------------|
D|------------------------------------|
A|------------------------------------| 
D|--5(x4)--3(x4)--1(x8)--3(x8)--3/5~--|





| /  slide up
| \  slide down
| h  hammer-on
| p  pull-off
| ~  vibrato
| +  harmonic
| x  Mute note
===============================================================================
comments
We did not receive enough feedback on this tab! Please rate:
print report bad tab
1 2 3 4 5
I want to post or [tab]
guest
You may want to rate the tab now too:
select rating
Please do not post tabs as comments. Select "correction" instead!