Oops, an error
Loading. Please wait.

Hurt Bass Tab

version 2
version 2

Whole song

236 views 1 this week
no commentswrite comment
1 2 3 4 5
excellent!
x 1
add to favorites
launch autoscroll
font size
0
reset
guitar tuner
Tab Pro tools
  • play this tab
  • loop segment
  • change instrument
  • show fretboard
  • metronome
Autoscroll
slow
fast
+/-
esc
set tempo
stop
Contributor
Tuning
D A D G B E
Intro 0:06
G|--------------------------------------|
D|o------------------------------------o|
A|o------------------------------------o|
D|--5555-5-5-3-3-3-3-1111-1-1-3-3-3131--|

Verse 0:20                       x3
G|---------------------------------|
D|o-------------------------------o|
A|o-------------------------------o|
D|--5-5~--53-3~---1-1~--13-3~-131--|

G|-------------------------------|
D|-------------------------------|
A|-------------------------------|
D|-5-5~--53-3~---1-1~--13-3~1068-|

Pre Chorus
0:47
G|--------------------------------|
D|--------------------------------|
A|--------------------------------|
D|-1-1-1-1-1111-1-1-3-3-3-3333333-|

Chorus 0:54
G|-------------------------------|
D|-------------------------------|
A|-------------------------------| 
D|-5-5-5--53-3-3---1-1-1--13-3-3-|

G|---------------------------------|
D|---------------------------------|
A|---------------------------------|  
D|-5-5-5--53-3-3---1-1-1--13333-73-|

G|----------------------------------------------------|
D|----------------------------------------------------|
A|----------------------------------------------------| 
D|-85-5-5--53-3-3---1-1-1--1/8\1-1-1--3-3-3--3/1086468-|

G|----------------------------------|
D|----------------------------------|
A|----------------------------------| 
D|-5-5-5--53-3-3---1-1-1--13-3-3187-|

Verse 1:25
G|---------------------------|
D|---------------------------|
A|---------------------------|  
D|-5-5~---3-3---1-1~---3-3~--|

G|--------------------------------|
D|--------------------------------|
A|--------------------------------|  
D|-5-5~--53-3~---1-1~--13-3~-5387-|

G|--------------------------------|
D|--------------------------------|
A|--------------------------------|  
D|-5-5~--53-3~---1-1~--13-3~-3787-|

G|---------------------------------|
D|---------------------------------|
A|---------------------------------|  
D|-5-5~--53-3~---1-1~--13-3~-37875-|

Pre Chorus 1:52
G|---------------------------------------|
D|---------------------------------------|
A|---------------------------------------|
D|-1-1-1-1-1111-1-1-3-333333333333333-3\-|

Chorus 1:59
G|-------------------------------|
D|-------------------------------|
A|-------------------------------| 
D|-5-5-5--53-3-3---1-1-1--13-3-3-|

G|---------------------------------|
D|---------------------------------|
A|---------------------------------|  
D|-5-5-5--53-3-3---1-1-1--13213-87-|

G|--------------------------------------------------|
D|--------------------------------------------------|
A|--------------------------------------------------| 
D|-35-5-5--53-3-3---1-1-1-1-1-1-1-1-333333333333/87-|

Bridge 2:23
G|----------------------------------------------------------------|
D|----------------------------------------------------------------|
A|----------------------------------------------------------------|
D|-5-5-5~-55-5-5~-888~8~-88-8-8~7\3-3-3~-33-3-3~-111-1~-1-1-1/8-7-|

G|---------------------------------------------------------------|
D|---------------------------------------------------------------|
A|---------------------------------------------------------------|
D|-555-5~-55-5-5~-888~8~-88-8-8~7\333-3~-33-3-3~-111-1~-1-15-8-7-|

G|--------------------------------|
D|--------------------------------|
A|--------------------------------|
D|-1-1-1-1-1-1-1-1-3-3-3-3-3-3-3\-|

Chorus 3:01
G|----------------|
D|----------------|
A|----------------| 
D|-1-1-1--3-3---3-|

G|---------------------------------|
D|---------------------------------|
A|---------------------------------|  
D|-5-5-5--53-3-3---1-1-1--13213-87-|

G|--------------------------------------------------|
D|--------------------------------------------------|
A|---10\5-------------------------------------------| 
D|-3------5--53-3-3--1-1-1--11-1-1--3-3-3--33-3-87--|

G|----------------------------------|
D|----------------------------------|
A|----------------------------------| 
D|-5-5-5--57-7-8753-1-1-1--13-3---3-|

G|---------------------------------|
D|---------------------------------|
A|---------------------------------|  
D|-5-5-5--53-3-3---1-1-1--13213-87-|

G|-----------------------------------------------------|
D|-----------------------------------------------------|
A|----------------------------------------898----------| 
D|-35-5-5--53-3-3--1-1-1--11-1-1--3-3-3-35---1087535~~-|
Tabbed by Dave Vucko
comments
We did not receive enough feedback on this tab! Please rate:
print report bad tab
1 2 3 4 5
I want to post or [tab]
guest
You may want to rate the tab now too:
select rating
Please do not post tabs as comments. Select "correction" instead!