Oops, an error
Loading. Please wait.

If Only She Knew Voodoo Like I Do Bass Tab

1,152 views 1 this week
no commentswrite comment
1 2 3 4 5
3 more votes to show rating
add to favorites
launch autoscroll
font size
0
reset
guitar tuner
Autoscroll
slow
fast
+/-
esc
set tempo
stop
Help us to improve Ultimate-Guitar.com Take our survey!
×
Author
*This is not the tab for the song off of Best Kind of Mess*

Intro
G|--------------------------------------------|
D|--------------------------------------------|
A|-2-12-12-1--1--1--1--1--2-12-12-1--1--1--0--|
D|----------4---4--4--4--4---------4---4--4---|

G|-----------------------------------------|
D|-----------------------------------------|
A|-2-12-12-1--1--1--1--1--2-12-12-1--0--1--|
D|----------4---4--4--4--4---------4-------|

Verse 0:12
G|------------------------------------------------------------------------------|
D|------------------------------------------------------------------------------|
A|--2-2-2-----1-1-1--1--2-2-2-----1-1-1--1--2-2-2-----1-1-1--1--2-2-2-----0--1--|
D|--------434-------4-4-------434-------4-4-------434-------4-4-------434-------|

0:25
G|---------------------------------------|
D|---------------------------------------|
A|-2-2-2-52-02-2-2-52-01-1-1-11--1-1-1---|
D|------------------------------4-----4--|

G|--------------------------------------|
D|--------------------------------------|
A|-2-2-2-52-02-2-2-52-01-1-1-11---0--1--|
D|------------------------------4-------|

Chorus 0:38
G|-------------------------------------------------|
D|-------------------------------------------------|
A|-2-22-22-22-21-11-11-11-----------------------0--|
D|-------------------------5-55-55-55--4-44-44-4---|

G|-----------------------------------------------|
D|-----------------------------------------------|
A|-2-22-22-22-21-11-11-11------------------------|
D|-------------------------5-5h7-5-52-4-44-44-44-|

Post-chorus 0:50
G|------------------|
D|------------------|
A|-2-2-2-52-01-1----|
D|---------------4~-|

Verse 0:54
G|-----------------------------------------|
D|-----------------------------------------|
A|-2-2-2-52-02-2-2-52-01-1-1-11--1-1-1-----|
D|------------------------------4-----4----|

G|--------------------------------------|
D|--------------------------------------|
A|-2-2-2-52-02-2-2-52-01-1-1-11---0--1--|
D|------------------------------4-------|

Chorus 1:09
G|-----------------------------------------------------------------------|
D|-----------------------------------------------------------------------|
A|----------------------0--2-22-22-22-21-11-11-11------------------------|
D|-5-55-55-55--4-44-44-4---------------------------5-5h7-5-52-4-44-44-44-|

G|-------------------------------------------------|
D|-------------------------------------------------|
A|-2-22-22-22-21-11-11-11-----------------------0--|
D|-------------------------5-55-55-55--4-44-44-4---|

G|-----------------------------------------------|
D|-----------------------------------------------|
A|-2-22-22-22-21-11-11-11------------------------|
D|-------------------------5-5h7-5-52-4-44-44-44-|

Breakdown
1:45
G|---------------------------------|
D|o-------------------------------o|
A|o--------2--2---------2---------o|
D|--1--4-1-------1--4-1----000000--|

                   x3
G|-------------------|---------------|
D|o-----------------o|---------------|
A|o--------5-5-5-5--o|---------0--1--|
D|--1--4-1--7-7-7-7--|-1--4--1-------|

Bridge 2:11
G|-------------------------------------------------------------------|
D|-------------------------------------------------------------------|
A|-2-2-2---1-1-1-21--------------------2-2-2---1-1-1-21--------------|
D|-------5----------5-5-5-75-4-4-4-54-5------5----------5-5-5-75-4~--|

Chorus 2:25
G|-------------------------------------------------|
D|-------------------------------------------------|
A|-2-22-22-22-21-11-11-11-----------------------0--|
D|-------------------------5-55-55-55--4-44-44-4---|

G|-----------------------------------------------|
D|-----------------------------------------------|
A|-2-22-22-22-21-11-11-11------------------------|
D|-------------------------5-5h7-5-52-4-44-44-44-|

G|-------------------------------------------------|
D|-------------------------------------------------|
A|-2-22-22-22-21-11-11-11-----------------------0--|
D|-------------------------5-55-55-55--4-44-44-4---|

G|--------------------------------------------------|
D|--------------------------------------------------|
A|-2-22-22-22-21-11-11-11---------------------------|
D|-------------------------5-5h7-5-52-4-44-44-4/14\-|

Outro 2:50
G|--------------------------------------------|
D|--------------------------------------------|
A|-2-12-12-1--1--1--1--1--2-12-12-1--1--1--0--|
D|----------4---4--4--4--4---------4---4--4---|

G|-----------------------------------------|
D|-----------------------------------------|
A|-2-12-12-1--1--1--1--1--2-12-12-1--0-----|
D|----------4---4--4--4--4---------4----9\-|
Tabbed by Dave Vucko
Suggest correction
Give kudos to tab author, rate the tab!
1 2 3 4 5
comments
print report bad tab
guest
You may want to rate the tab now too:
select rating
Wanna post a correction for this tab? Suggest correction