Oops, an error
Loading. Please wait.

Lock The Doors Tab

904 views 3 this week
no commentswrite comment
1 2 3 4 5
accurate
x 2
add to favorites
launch autoscroll
font size
0
reset
how to read this tab
guitar tuner
Tab Pro tools
  • play this tab
  • loop segment
  • change instrument
  • show fretboard
  • metronome
Autoscroll
slow
fast
+/-
esc
set tempo
stop
Contributor
Difficulty
Tuning
intermediate
D A D G B E
---------------------------------------------------------------------------
            Lock The Doors - Get Scared
-------------------------------------------------------------------------------


Tuning: Drop D

 Play twice, but second time don't play "8s".
 Listen for strumming pattern
0:00-0:17
e|-------------------------------------------------|
B|-------------------------------------------------| 
G|-------------------------------------------------|
D|-5555555-88888-111111111-000004444---------------|
A|-5555555-88888-111111111-000004444---------------|
D|-5555555-88888-111111111-000004444---------------|

0:18-0:26
e|--------------------------------------------------------|
B|--------------------------------------------------------|
G|--------------------------------------------------------|
D|--------------------------------------------------------|
A|------------------------------------5555-1111-3333-0000-|
D|--55-55555-55555-55588888-55-55555----------------------|

0:27-0:34
e|---------If you find something that sounds better -------------|
B|---------here tell me--\/--------------------------------------|
G|----------------------7~-7~------------------------------------|
D|----------------------8~-8~---8888888888-----------------------|
A|------------------------------8888888888-------1111-3333-0000--|
D|--55-55555-55555--------------8888888888--0000-----------------|

0:35-0:51 First time let the 1s and 0s ring second separate them and there's
e|------------------------------------------------------| no 0's
B|------------------------------------------------------|listen for specifics
G|------------------------------------------------------|
D|---5~--5---55-5555---1--4~--XXXX--1-1-1-1-0-0-0-0-----|
A|---5~--5---55-5555---1--4~--XXXX--1-1-1-1-0-0-0-0-----|
D|---5~--5---55-5555---1--4~--XXXX--1-1-1-1-0-0-0-0-----|

0:53-1:10 Same as the first time except this time separate 1's,0's
e|-------------------------------------------------|and 4's
B|-------------------------------------------------| 
G|-------------------------------------------------|
D|-5555555-88888-111111111-000004444---------------|
A|-5555555-88888-111111111-000004444---------------|
D|-5555555-88888-111111111-000004444---------------|

1:11-1:22
e|------------------------------------------5*----------------------|
B|------------------------------------------5*----------------------|
G|----------------------------------X2------5*----------------------|
D|----------------------------------\/------------------------------|
A|-5------5555-------X4---------8-7-5-0-4-0-------------------------|
D|-5------5555-------\/-----------------------------1111-0000-------|
e|-5------5555--8-7-5-0-4-0--------------------0000-----------4444--|
                               ............

1:23-1:39 First time let the 1s and 0s ring second separate them and there's
e|------------------------------------------------------| no 0's
B|------------------------------------------------------|listen for specifics
G|------------------------------------------------------|
D|---5~--5---55-5555---1--4~--XXXX--1-1-1-1-0-0-0-0-----|
A|---5~--5---55-5555---1--4~--XXXX--1-1-1-1-0-0-0-0-----|
D|---5~--5---55-5555---1--4~--XXXX--1-1-1-1-0-0-0-0-----|
small pause then
1:44-1:47
e|----------------------------------|
B|----------------------------------|
G|----------------------------------|
D|--1-1-1-0-1-1-1--444444444--------|
A|--1-1-1-0-1-1-1--444444444--------|
D|--1-1-1-0-1-1-1--444444444--------|
                   .........
1:48-2:09 Same as the first time except this time separate 1's,0's
e|--------------------------------------|----------|and 4's
B|--------------------------------------|----------| 
G|--------------------------------------|----------|
D|-5555555-88888-111111111-000004444----|-55555555-|
A|-5555555-88888-111111111-000004444----|-55555555-|
D|-5555555-88888-111111111-000004444----|-55555555-|
                                          ........
2:09-2:26                                      Repeat but end with instead of
e|--------------------------|-------------------------------|----------------|
B|--------------------------|-------------------------------|----------------|
G|------------------5*------\/------------------------------|----------------|
D|-55-5-5-55-5-5--7*---44-4-4-44-4-4------------------------|-1-1111--4-4444-|
A|-55-5-5-55-5-5-------44-4-4-44-4-4------1111-0000---------|-1-1111--4-4444-|
D|-55-5-5-55-5-5-------44-4-4-44-4-4-0000------------4444---|-1-1111--4-4444-|
                   Pause                                        ....    ....
2:39-2:43
e|-----------------------------------|-----------------|
B|-----------------------------------|-----------------|
G|-----------------------------------|--------=--------|
D|---1-1-11-111-111-1-4-4444444------|-----4~-0~---4~--|
A|---1-1-11-111-111-1-4-4444444------|-----4~-0~---4~--|
D|---1-1-11-111-111-1-4-4444444------|-----4~-0~---4~--|
                        .......               .
                                               /\
                                               |
The Rest of the parts You know, Chorus         | 
 then that other part in 1:11-1:22 then end with this
comments
We did not receive enough feedback on this tab! Please rate:
print report bad tab
1 2 3 4 5
I want to post or [tab]
guest
You may want to rate the tab now too:
select rating
Please do not post tabs as comments. Select "correction" instead!