Oops, an error
Loading. Please wait.

Misunfortunate Lets Talk Bass Tab

959 views 6 this week
no commentswrite comment
1 2 3 4 5
x 4
add to favorites
launch autoscroll
font size
0
reset
guitar tuner
Autoscroll
slow
fast
+/-
esc
set tempo
stop
Help us to improve Ultimate-Guitar.com Take our survey!
×
Author
Tuning
D A D G B E
added some fills just for the fun of it

0:54Verse
G|o|------------------------------------|--------|o|
D|-|o----------------------------------o|--------|-|
A|-|o-33-56531---6---5-3356531---6---5-o|-3---3\-|-|
D|o|-----------6---5-----------6---5----|--------|o|

1:33Chorus
G|--------------------------------------------------------------------|
D|--------------------------------------------------------------------|
A|-333-3333333-35653222-2222222-232-----------------------------------|
D|---------------------------------5666-6668666-6864555-5555555-56568-|

1:49
G|------------------|
D|------------------|
A|-33-56531---6---5-|
D|----------6---5---|

1:53Verse           x3
G|--------------------|----------------|
D|o------------------o|----------------|
A|o-33-56531---6---5-o|-33-56531---6---|
D|-----------6---5----|----------6---5-|

2:09Chorus
G|---------------------------------------------------------------------|
D|o-------------------------------------------------------------------o|
A|o-333-3333333-35653222-2222222-232----------------------------------o|
D|---------------------------------5666-6668666-6864555-5555555-56568--|

2:41 (light/faded)
G|------------------------------------|
D|------------------------------------|
A|------------------------------------|
D|-10~~~~~~9~~~~~~6~~~~~~5~~~55555565-|

2:58
G|---------------------------------------------------------------------|
D|---------------------------------------------------------------------|
A|------------------------------------------------------------------65-|
D|-10~~10~~1010~~1010~10~\5~~5~~55~~55~5/6~~6~~66~~66~6~\5~~5~~55~~5---|

3:13Chorus
G|--------------------------------------------------------------------|
D|--------------------------------------------------------------------|
A|-333-3333333-35653222-2222222-232-----------------------------------|
D|---------------------------------5666-6668666-6864555-5555555-56568-|

G|--------------------------------------------------------------------|
D|--------------------------------------------------------------------|
A|-33-333-333-35653-22-222-222-232------------------------------------|
D|--------------------------------65666-6668666-6864555-5555555-56568-|

Outro
3:45
G|---------------------|
D|---------------------|
A|-33-56531---6---5-33-|
D|----------6---5------|
Tabbed by Dave Vucko
Suggest correction
comments
print report bad tab
guest
You may want to rate the tab now too:
select rating
Wanna post a correction for this tab? Suggest correction