Oops, an error
Loading. Please wait.

Moving Bass Tab

version 2
version 2

Whole song

168 views 1 this week
no commentswrite comment
1 2 3 4 5
3 more votes to show rating
add to favorites
launch autoscroll
font size
0
reset
guitar tuner
Autoscroll
slow
fast
+/-
esc
set tempo
stop
Help us to improve Ultimate-Guitar.com Take our survey!
×
Author
Tuning
D A D G B E
Intro 0:11
G|------------------------------------------------------------------|
D|------------------------------------------------------------------|
A|------------------------------------------------------------------|
D|-5-5-5-5-5---8-8---8-8---8-8-8\---1-1-1-1-1---1-1---1-1---1-1-1---|

G|------------------------------------------------------------------|
D|------------------------------------------------------------------|
A|------------------------------------------------------------------|
D|-5-5-5-5-5---8-8---8-8---8-8-8\---3-3-3-3-3---1-1---1-1---1-1-1---|

Rest (Chord root notes softly)

Verse 0:34 x3
G|-----------------------------------|-----|
D|o---------------------------------o|-----|
A|o---------------------------------o|-----|
D|--8-8-8-8---8-8-8-5---5---3-3-3----|--1--|

Chorus 0:49
G|-----------------------------------------------------------------|
D|-----------------------------------------------------------------|
A|-----------------------------------------------------------------|
D|-5---5---5---5---5---5---5-5-5-5-8---8---8---8---8---8---8-7-5-3-|

G|-----------------------------------------------------------------|
D|-----------------------------------------------------------------|
A|-----------------------------------------------------------------|
D|-1---1---1---1---1---1---1---1---0--0/12------0--0/12--12--0--12-|

G|------------------------------------------------------------------|
D|------------------------------------------------------------------|
A|------------------------------------------------------------------|
D|-5-5-5-5-5---8-8---8-8---8-8-8\---3-3-3-3-3---1-1---1-1---1-1-1---|

Rest (Chord root notes softly)

Verse 1:18 x3
G|-----------------------------------|-----|
D|o---------------------------------o|-----|
A|o---------------------------------o|-----|
D|--8-8-8-8---8-8-8-5---5---3-3-3----|--1--|

Chorus 1:31
G|-----------------------------------------------------------------|
D|-----------------------------------------------------------------|
A|-----------------------------------------------------------------|
D|-5---5---5---5---5---5---5-5-5-5-8---8---8---8---8---8---8-7-5-3-|

G|-----------------------------------------------------------------|
D|-----------------------------------------------------------------|
A|-----------------------------------------------------------------|
D|-1---1---1---1---1---1---1---1---0---0---0---0---0---0---0---0---|

1:42
G|-----------------------------------------------------------------|
D|-----------------------------------------------------------------|
A|-----------------------------------------8---------------8-6-----|
D|-5---5---5---5---5---5---5-5-5-5-8---8-------8---8---8-------8-8-|

G|---------------------------------------------------------------------|
D|---------------------------------------------------------------------|
A|---------------------------------------------------------------------|
D|-1---1---1---1---1---1---1-1-1---0---0-0-0---0---0-0-0---0-/12-12-12-|

Bridge 1:54
G|-----------------------------------------------------------------|
D|-----------------------------------------------------------------|
A|-----------------------------------------------------------------|
D|-5---5---5---5---5---5---5---5---8---8---8---8---8---8---8---8---|

G|-----------------------------------------------------------------|
D|-----------------------------------------------------------------|
A|-----------------------------------------------------------------|
D|-1---1---1---1---1---1---1---1---0---0---0---0---0---0---0---0---|

2:05
G|-----------------------------------------------------------------|
D|-----------------------------------------------------------------|
A|---------------------------------------------------8-----8-6-----|
D|-5---5---5---5---5---5---5---5---8---8---8---8---8-----8-----8---|

G|-----------------------------------------------------------------|
D|-----------------------------------------------------------------|
A|-----------------------------------------------------------------|
D|-1---1---1---1---1---1---1---1---0---0---0---0---0---0---0---0---|

2:17
G|-----------------------------------------------------------------|
D|-----------------------------------------------------------------|
A|-----------------------------------------------------------------|
D|-5-5-5-5-5-5-5-5-5-5-5-5-5-5-5-5-8-8-8-8-8-8-8-8-8-8-3-3-1-1-0-0-|

G|-----------------------------------------------------------------|
D|-----------------------------------------------------------------|
A|-----------------------------------------------------------------|
D|-1-1-1-1-1-1-1-1-1-1-1-1-1-1-1-1-0-0-0-0-0-0-0-0-0-0-0-0-0-0-0-0-|

G|---------------------------------|
D|---------------------------------|
A|---------------------------------|
D|-0-0---0-0---0-0---1-1-1-3-------|


Chorus 2:31
G|------------------------------------------------------------------|
D|------------------------------------------------------------------|
A|-----------------------------------------8------------------------|
D|-5---5---5---5---5---5---5-5-5-5-8---8-------8---8---8---8-10-8-7-|

G|-----------------------------------------------------------------|
D|-----------------------------------------------------------------|
A|-----------------------------------------------------------------|
D|-1---1---1---1---1---1---1---1---0---0---0---0---0---0---0---0---|

2:43
G|-----------------------------------------------------------------|
D|-5-5-5-5---------------------------------------------------------|
A|---------5-5-5-5-------------------------------------------------|
D|-----------------8-8-8-8-8-7-5-7-8-8-8-8-8-8-8-8-8-8-8-8-8-7-5-3-|

G|-----------------------------------------------------------------|
D|-----------------------------------------------------------------|
A|-----------------------------------------------------------------|
D|-1-1-1-1-1-1-1-1-1-1-1-1-1-1-1-1-0---0---0---0---0---0---0---0---|

G|-----------------------------------------------|
D|-----------------------------------------------|
A|-----------------------------------------------|
D|-/12-12--12-12--12-12--13-13-13-13-15-15-15-15-|

Outro 2:58
G|------------------------------------------------------------------------|
D|------------------------------------------------------------------------|
A|------------------------------------------------------------------------|
D|-5-5-5-5-5---8-8---8-8---8-8-8\---1-1-1-1-1---1-1-1/13-13-13-13-12-10-8-|

G|-------------------------------------------------------------------------------------|
D|-------------------------------------------------------------------------------------|
A|-------------------------------------------------------------------------------------|
D|-5-5-5-5-5---8-8---8-8---8-8-8\---3-3-3-3-3---1-1---1-1---1-1-1---1~--1-r-1~--1-r-0--|
Tabbed by Dave Vucko
Suggest correction
Give kudos to tab author, rate the tab!
1 2 3 4 5
comments
print report bad tab
guest
You may want to rate the tab now too:
select rating
Wanna post a correction for this tab? Suggest correction