Oops, an error
Loading. Please wait.

My Nightmare tab

1,000 views 18 this week
no commentswrite comment
1 2 3 4 5
3 more votes to show rating
add to favorites
×
Save as Personal and add changes to this tab that will be seen only by you. Learn more ›
×
You can save this tab as Personal to edit and correct it or add notes. All changes will be seen only by you. Learn more »
launch autoscroll
font size
0
reset
how to read this tab
guitar tuner
edit
Autoscroll
slow
fast
+/-
esc
set tempo
stop
i dont know ever part if this but this is a start hopefully someone else will figure the rest
tuning is drop c
also just listen to the song to figure out strumming and where to palm mute


[Intro]

guitar 1
D-----------------------------------------------------------------------------------------------------------|
A-----------------------------------------------------------------------------------------------------------|
F-11-11-11-11-7-7-7-7-7-7-10-10-10-10-10-10-13-13-13-13-13-13-----------------------------------------------|
c-----------------------------------------------------------------------------------------------------------|
G-----------------------------------------------------------------------------------------------------------|
C-----------------------------------------------------------------------------------------------------------|

D-----------------------------------------------------------------------------------------------------------|
A-----------------------------------------------------------------------------------------------------------|
F-11-11-11-11-7-7-7-7-7-7-6-6-6-6-6-6-3-3-3-3-3-3-3-3-------------------------------------------------------|
c-----------------------------------------------------------------------------------------------------------|
G-----------------------------------------------------------------------------------------------------------|
C-----------------------------------------------------------------------------------------------------------|
this is one intro part

guitar 2
D-----------------------------------------------------------------------------------------------------------|
A-----------------------------------------------------------------------------------------------------------|
F-----------------------------------------------------------------------------------------------------------|
c--7-7-7-7-6-6-6-6---------3-3-3-3--------------------------------------------------------------------------|
G--5-5-5-5-4-4-4-4-5-5-5-5-1-1-1-1--------------------------------------------------------------------------|
C------------------5-5-5-5----------------------------------------------------------------------------------|
dont let the bass fool you guitar parts kinda hard to hear
this is the other guitar part


 [verse 1]

D----------------------------------|
A----------------------------------|
F----------------------------------|
c--7-7-7--6-6-6-------------3-3-3--|
G--5-5-5--4-4-4-5-5-5-4-4-4-1-1-1--|
C---------------5-5-5-4-4-4--------|
   versus first 2 are pulm muted third one hold
break downs im not to sure on so sorry


 [chorus]    x2

D-----------------------------------------------------|
A-----------------------------------------------------|
F--------------------------4-4-4-4-4-4----------------|
c-0-0-0-0-0--4-4-4-4-4-4-4-4-4-4-4-4-4-5-5-5-5-5-5-5--|
G-0-0-0-0-0--4-4-4-4-4-4-4-2-2-2-2-2-2-5-5-5-5-5-5-5--|
C-0-0-0-0-0--4-4-4-4-4-4-4-------------5-5-5-5-5-5-5--|


 [verse 2] ther are some parts you dont play listen to the song for the strum pattern
D----------------------------------|
A----------------------------------|
F----------------------------------|
c--7-7-7--6-6-6-------------3-3-3--|
G--5-5-5--4-4-4-5-5-5-4-4-4-1-1-1--|
C---------------5-5-5-4-4-4--------|


[chorus]    x2

D-----------------------------------------------------|
A-----------------------------------------------------|
F--------------------------4-4-4-4-4-4----------------|
c-0-0-0-0-0--4-4-4-4-4-4-4-4-4-4-4-4-4-5-5-5-5-5-5-5--|
G-0-0-0-0-0--4-4-4-4-4-4-4-2-2-2-2-2-2-5-5-5-5-5-5-5--|
C-0-0-0-0-0--4-4-4-4-4-4-4-------------5-5-5-5-5-5-5--|

[break down]


[chorus]    x2
D-----------------------------------------------------|
A-----------------------------------------------------|
F--------------------------4-4-4-4-4-4----------------|
c-0-0-0-0-0--4-4-4-4-4-4-4-4-4-4-4-4-4-5-5-5-5-5-5-5--|
G-0-0-0-0-0--4-4-4-4-4-4-4-2-2-2-2-2-2-5-5-5-5-5-5-5--|
C-0-0-0-0-0--4-4-4-4-4-4-4-------------5-5-5-5-5-5-5--|

thats all i got for now once i figure out more ill update it

            
            
Suggest correction
Creating personal tab
Creating personal tab
You can edit any tab online and save it as your Personal.

You can edit, replace or remove any tab part or add personal notes – all changes will be seen only by you.

Personal tabs can be accessed anytime from any device, even offline.
Learn more »
Give kudos to tab author, rate the tab!
1 2 3 4 5
comments
print report bad tab
guest
You may want to rate the tab now too:
select rating
Wanna post a correction for this tab? Suggest correction