Oops, an error
Loading. Please wait.

Parade Bass Tab

544 views 3 this week
no commentswrite comment
1 2 3 4 5
please rate
add to favorites
launch autoscroll
font size
0
reset
guitar tuner
Tab Pro tools
  • play this tab
  • loop segment
  • change instrument
  • show fretboard
  • metronome
×
Best way to learn
"Parade"
Autoscroll
slow
fast
+/-
esc
set tempo
stop
Contributor
Tuning
D A D G B E
-------------------------------------------------------------------------------
			     PARADE - Get Scared.
-------------------------------------------------------------------------------

Tabbed By : mariewong.





Tuning: Drop D.





Intro [00:13]

G|--------------------------------------|
D|--------------------------------------|
A|---------/8(x3)--5(x5)--1(x8)--0(x8)--|   [x2]
D|--0(x8)-------------------------------|

G|----------------------------------|
D|----------------------------------|
A|--4(x16)--1111--------0000--4444--|
D|----------------0000--------------|



Verse [00:30]

G|-----------------------------------|
D|-----0------0---0-----0-2-3-2-0----|
A|--------------------------------3--|   [x2]
D|--0-------0---0---0----------------|

G|-----3------3---3-------------------------------------------------|
D|--------------------------0-------------7----7---7----------------|
A|--1-------1---1---1---1-3---3-1-0----0-----0---0---0-------00-44--|
D|-------------------------------------------------------222--------|

G|-------------------------------------------------------------------|
D|----------0-2-3-2-0-------------0-2-3-2-0-----------------0--------|
A|--------------------3---------------------3---1(x10)--1-3---3-1-0--|
D|--0(x10)----------------0(x10)-------------------------------------|

G|---------------------------------------------|
D|---------------------------------------------|
A|--0(x9)------00-44----------0(x8)--1(x8)--4--|
D|---------222---------5(x8)-------------------|



Chorus [01:00]

G|-------------------------------------|
D|--0(x8)--3(x3)--0(x5)----------------|
A|-----------------------1(x8)--0(x8)--|   [x3]
D|-------------------------------------|

G|---------------------------------|
D|--0(x8)--3(x3)-0(x5)-------------|
A|----------------------1(x8)--3\--|
D|---------------------------------|



Verse [01:26]

G|--------------------------------------------|
D|--------------0------0---0-----0-2-3-2-0----|
A|-----------------------------------------3--|
D|--7/12\----0-------0---0---0----------------|

G|-----------------------------------|
D|-----0------0---0-----------3-3-3--|
A|-----------------------------------| 
D|--0-------0---0---0----------------|

G|-----3------3---3-------------------------------------------------|
D|--------------------------0-------------7----7---7----------------|
A|--1-------1---1---1---1-3---3-1-0----0-----0---0---0-------00-44--|
D|-------------------------------------------------------222--------|

G|------------------------------------------------------------------|
D|--0(x10)--0-2-3-2-0-----0(x8)---------3333---------------0--------|
A|--------------------3------------------------1(x10)--1-3---3-1-0--|
D|-------------------------------12\--------------------------------|

G|-------------------------------------------------------|
D|-------------------------------------------------------|
A|--0(x9)------00-44----------0(x8)--1(x8)--444-444-444--|
D|---------222---------5(x8)-----------------------------|



Chorus [01:55]

G|-------------------------------------|
D|--0(x8)--3(x3)--0(x5)----------------|
A|-----------------------1(x8)--0(x8)--|   [x3]
D|-------------------------------------|

G|---------------------------------|
D|--0(x8)--3(x3)-0(x5)-------------|
A|----------------------1(x8)--3\--|
D|---------------------------------|



Bridge [02:18]

G|------------------------------------------|  _
D|------------------------------------------|   |
A|---------------------------------------5--|   |
D|--12-0-0--12-0-0--15-12-0-0--12-0-0--8----|   |
                                                |  [x4]
G|-------------------------------------|        |
D|-------------------------------------|        |
A|-------------------------------------|       _|
D|--8-0-0--8-0-0--8-7-0-0--7-0-0--0-7--|       

G|------------------------------------------------------------------------|
D|------------------------------------------------------------------------|
A|---------0(x8)--1(x8)--444-444---444-444---444-444-------0000-111-4444--|
D|--5(x8)---------------------------------------------5555----------------|



Chorus [02:55]

G|-------------------------------------|
D|--0(x8)--3(x3)--0(x5)----------------|
A|-----------------------1(x8)--0(x8)--|   [x4]
D|-------------------------------------|

G|--------------------------------------------|
D|--------------------------------------------|
A|--1(x16)--3(x16)--1(x16)--3(x8)--3-xxx-3-4--|
D|--------------------------------------------|

G|-------------------------------------------------|
D|-------------------------------------------------|
A|--1111------0000-4444--1~--3--0-0-4~--5-5--5-5\--|
D|-------0000--------------------------------------|





| /  slide up
| \  slide down
| h  hammer-on
| p  pull-off
| ~  vibrato
| +  harmonic
| x  Mute note
===============================================================================
comments
We did not receive enough feedback on this tab! Please rate:
print report bad tab
1 2 3 4 5
I want to post or [tab]
guest
You may want to rate the tab now too:
select rating
Please do not post tabs as comments. Select "correction" instead!