Oops, an error
Loading. Please wait.

Sarcasm Bass Tab

version 2
version 2

Whole song

1,099 views 12 this week
no commentswrite comment
1 2 3 4 5
please rate
add to favorites
launch autoscroll
font size
0
reset
guitar tuner
Tab Pro tools
  • play this tab
  • loop segment
  • change instrument
  • show fretboard
  • metronome
×
Best way to learn
"Sarcasm"
Autoscroll
slow
fast
+/-
esc
set tempo
stop
Contributor
Tuning
D A D G B E
0:06
G|--------------------------------------------------|
D|--------------------------------------------------|
A|--------------------------------------------------|
D|-0-00-00-00-08-88-5-7-77-3-0-00-00-00-0-8-88-5-7\-|

Verse 0:16
G|-----------------------------------------|
D|-----0-23------0-320------0-02-----------|
A|---------------------31-1------00-0-4-45-|
D|-0-0------00-0---------------------------|

G|----------------------------------------|
D|-----0-23------0-320------0-02----------|
A|---------------------31-1---------------|
D|-0-0------00-0-----------------5--8--7\-|

Pre-chorus 0:32
G|----------------------------------|
D|-----0-23------0-320------0-02----|
A|---------------------31-1---------|
D|-0-0------00-0-----------------7\-|

Chorus 0:38
G|--------------------------------------------------------------------|
D|o------------------------------------------------------------------o|
A|o-----------------------------------------------------------4-4-45-o|
D|--0-0-0-0-0-8-87--5-5-5-5-5-3-302--0-0-0-0-0-8-87--5--5-5-5--0-0----|

Verse 1:00
G|--------------------------------------------------------------|
D|--------------------------------------------------------------|
A|--------------------------------------------------------------|
D|-0-0-0-0-0-0-0-2~/8-8-8-8-7-7-7-7-0-0-0-0-0-0-0-2~/8-8-8-8-7\-|

G|-----------------------------------------|
D|-----0-23------0-320------0-02-----------|
A|---------------------31-1------00-0-4-45-|
D|-0-0------00-0---------------------------|

G|-------------------------------------------|
D|-----0-23------0-320------0-02-------------|
A|---------------------31-1------------------|
D|-0-0------00-0-----------------7--7--5--5--|

Chorus 1:22
G|--------------------------------------------------------------------|
D|o------------------------------------------------------------------o|
A|o-----------------------------------------------------------4-4-45-o|
D|--0-0-0-0-0-8-87--5-5-5-5-5-3-302--0-0-0-0-0-8-87--5--5-5-5--0-0----|

Bridge 1:43
G|-------------------------------------------|
D|-------------------------------------------|
A|-------------------------------------------|
D|-0~---8~---10\5~---0(x16)--8(x8)--5(x8)--0-|

G|---------------------------------------------------------------|
D|---------------------------------------------------------------|
A|---------------------------------------------------------------|
D|-1-111-111-111-11--1--1--1--1--555-5555-8(x8)--444-4444-0(x8)--|

G|--------------------------------------------------|
D|--------------------------------------------------|
A|--------------------------------------------------|
D|-1-111-111-111-11--1--1--1--1--0(x6)--5(x10)--0~0-|

Chorus 2:28
G|--------------------------------------------------------------------|
D|--------------------------------------------------------------------|
A|-------------------------------------------------------------4-4-45-|
D|-53-0-0-0-0-0-8-87--5-5-5-5-5-3-302-0-0-0-0-0-8-87--5--5-5-5--0-0---|

G|--------------------------------------------------------------------|
D|--------------------------------------------------------------------|
A|----------------------------------------------------------4-4-4540--|
D|-0-0-0-0-0-8-87--5-5-5-5-5-3-532-0-0-0-0-0-8-87--5--5-5-5--0-0------|

G|--------------------------------------------------------------------|
D|--------------------------------------------------------------------|
A|-------------------------------------------------------------4-4-45-|
D|-0-0-3-3-7-8-8753--5-5-3-3-2-3-203--0-0-0-0-0-8-87--5--5-5-5--0-0---|

G|--------------|
D|--------------|
A|--------------|
D|-8-5-7-0~-12\-|
Tabbed by Dave Vucko
comments
We did not receive enough feedback on this tab! Please rate:
print report bad tab
1 2 3 4 5
I want to post or [tab]
guest
You may want to rate the tab now too:
select rating
Please do not post tabs as comments. Select "correction" instead!