Oops, an error
Loading. Please wait.

Voodoo Bass Tab

version 1
version 1

Whole song

2,937 views 9 this week
no commentswrite comment
1 2 3 4 5
excellent!
x 3
add to favorites
launch autoscroll
font size
0
reset
guitar tuner
Autoscroll
slow
fast
+/-
esc
set tempo
stop
Help us to improve Ultimate-Guitar.com Take our survey!
×
Author
-------------------------------------------------------------------------------
			     VOODOO - Get Scared.
-------------------------------------------------------------------------------

Tabbed By : mariewong.


Tuning: Standard.


Intro [00:05]

G|-----------------------------------------------------------------|
D|-----------------------------------------------------------------|
A|--2-1-2-1-2-1-----1---1---1---1------2-1-2-1-2-1------1---1---0--|
E|--------------2-----2---2---2---2----------------2------2---2----|

G|---------------------------------------------------------------|
D|---------------------------------------------------------------|
A|--2-1-2-1-2-1------1---1---1---1------2-1-2-1-2-1------0--1----|
E|--------------2------2---2---2---2----------------2------------|



Verse [00:17]

G|------------------------------------------------------------------------|
D|------------------------------------------------------------------------|
A|--2-1-2-1-2-1--------1---1---1---1------2-1-2-1-2-1---0----1---1---1----|
E|--------------3-2------2---2---2---2----------------2--------2---2---2--|

G|----------------------------------------------------------------|
D|----------------------------------------------------------------|
A|--2-1-2-1-2-1---0----1---1---1---1------2-1-2-1-2-1---0---0--1--|
E|--------------2--------2---2---2---2----------------2-----------|

G|-------------------------------------------------|
D|-------------------------------------------------|
A|--2-2-2----0-2-2--2-1-2------1-1-1----0-1-1-1----|
E|---------2--------------2-----------2---------2--|

G|--------------------------------------|
D|--------------------------------------|
A|--2-2-2----0-2-2--2-1-2------1-1-1----|
E|---------2--------------2----------2--|



Chorus [00:41]

G|--------------------------------------------------------------|
D|--------------------------------------------------------------|
A|--2(x8)--1(x8)----------------0--2(x8)--1(x8)-----------------|
E|----------------3(x8)--2(x7)-------------------3-3-5-3-5-0-2--|



Post-chorus [00:55]

G|----------------------|
D|----------------------|
A|--2-2-2-1---1-2-------|
E|----------2-------2~--|



Verse [00:58]

G|--------------------------------------------------------|
D|--------------------------------------------------------|
A|--2-2-2---2------2-2-2-1-2------1-1-1---1------1-1-1----|
E|--------2---2--------------2----------2---2----------2--|

G|---------------------------------------------------|
D|---------------------------------------------------|
A|--2-2-2---2------2-2-2-1-2------1-1-1---1----0--1--|
E|--------2---2--------------2----------2---2--------|



Chorus [01:13]

G|----------------------------------------------------|
D|----------------------------------------------------|
A|----------------0--2(x8)--1(x8)---------------------|
E|--3(x8)--2(x7)-------------------3-3-5-3-5-0-2(x8)--|

G|--------------------------------------------------------------|
D|--------------------------------------------------------------|
A|--2(x8)--1(x8)----------------0--2(x8)--1(x8)-----------------|
E|----------------3(x8)--2(x7)-------------------3-3-5-3-5-0-2--|



Bridge [01:34]

G|-------------------------------------|
D|-------------------------------------|
A|-------------------------------------|
E|--0(x8)--2(x8)--3(x8)--5(x4)--66-22--|

G|-------------------------------------------|
D|-------------------------------------------|
A|-------------------------------------------|
E|--0(x8)--2(x2)-/14\--3(x8)--5(x8)--6-2-7\--|



Chorus [02:10]

G|------------------------------------------------------------------------|
D|------------------------------------------------------------------------|
A|--------2(x8)--1(x8)----------------0--2(x8)--1(x8)---------------------|
E|--2~------------------3(x8)--2(x7)-------------------3-3-5-3-5-0-2(x8)--|

G|----------------------------------------------------------------|
D|----------------------------------------------------------------|
A|--2(x8)--1(x8)----------------0--2(x8)--1(x8)--------------0-1--|
E|----------------3(x8)--2(x7)-------------------3-3-5-3-5-0------|

G|-----------------------------------------------------------------|
D|-----------------------------------------------------------------|
A|--2-1-2-1-2-1-----1---1---1---1------2-1-2-1-2-1------1---1---0--|
E|--------------2-----2---2---2---2----------------2------2---2----|

G|---------------------------------------------------------------|
D|---------------------------------------------------------------|
A|--2-1-2-1-2-1------1---1---1---1------2-1-2-1-2-1--------------|
E|--------------2------2---2---2---2----------------2--5--6--7\--|





| /  slide up
| \  slide down
| h  hammer-on
| p  pull-off
| ~  vibrato
| +  harmonic
| x  Mute note
===============================================================================
Suggest correction
Give kudos to tab author, rate the tab!
1 2 3 4 5
comments
print report bad tab
guest
You may want to rate the tab now too:
select rating
Wanna post a correction for this tab? Suggest correction