Oops, an error
Loading. Please wait.

Voodoo Bass

version 2
version 2

Whole song

236 views 1 this week
no commentswrite comment
1 2 3 4 5
3 more votes to show rating
add to favorites
launch autoscroll
font size
0
reset
guitar tuner
×
Best way to learn
"Voodoo"
Autoscroll
slow
fast
+/-
esc
set tempo
stop
Difficulty
intermediate
I've pretty much Re-Written the original version of this tab to make it easier to play, 
especially if you're new or have weird fingers (Like Me), so you'll have to tune the 
second string up half a step to A# :)

G |----------------------------------------------------|--1st Time--|--2nd Time--|
D |----------------------------------------------------|------------|------------|
A#|-1-0-1-0-1-0-----0---0---0---0------1-0-1-0-1-0-----|-0---0------|---0--------|
E |-------------2-----2---2---2---2----------------2---|---2---2--5-|-5----------|

Verse
G |----------------------------------------------------------------------|
D |----------------------------------------------------------------------|
A#|-1-0-1-0-1-0--------0---0---0---0------1-0-1-0-1-0--------0---0---0---|
E |-------------3-2------2---2---2---2----------------2-5------2---2---2-|

G |--------------------------------------------------------|---------------------------------|
D |--------------------------------------------------------|---------------------------------|
A#|-1-0-1-0-1---------0---0---0------1-0-1-0-1-0---------0-|-1-1-1-----1-1---1-0-1---0-0-0---|
E |-----------2-5-------2---2---2----------------2-5---5---|-------2-5-------------2-------2-|

Chorus
G |---------------------------------------------------------------|-----------------|
D |---------------------------------------------------------------|-----------------|
A#|--1(x8)--0(x8)-------------------1(x8)--0(x8)------------------|-1-1-1-0---0-1---|
E |----------------3(x8)--2(x7)--5-----------------3-3-5-3-5-0-2--|---------2-----2-|

Verse
G |--------------------------------------------------------|
D |--------------------------------------------------------|
A#|--1-1-1---1------1-1-1-0-1------0-0-0---0------0-0-0----|
E |--------2---2--------------2----------2---2----------2--|

-----------------------------------------------|
-----------------------------------------------|
-1-1-1---2----1-1-1-0-1----0-0-0---0---------0-|
-------2---2------------2--------2---2----5----|

Chorus
G |---------------------------------------------------|
D |---------------------------------------------------|
A#|------------------1(x8)--0(X8)---------------------|
E |--3(x8)--2(x7)--5---------------3-3-5-3-5-0-2(x8)--|

G |---------------------------------------------------------------|
D |---------------------------------------------------------------|
A#|--1(x8)--0(x8)-------------------1(x8)--0(x8)------------------|
E |----------------3(x8)--2(x7)--5-----------------3-3-5-3-5-0-2--|

Bridge
G |-------------------------------------|-------------------------------------------|
D |-------------------------------------|-------------------------------------------|
A#|-------------------------------------|-------------------------------------------|
E |--0(x8)--2(x8)--3(x8)--5(x4)--66-22--|--0(x8)--2(x2)-/14\--3(x8)--5(x8)--6-2-7\--|

Chorus
G |------------------------------------------------------------------------|
D |------------------------------------------------------------------------|
A#|--------1(x8)--0(x8)------------------1(x8)--0(x8)----------------------|
E |--2~------------------3(x8)--2(x7)--5-----------------3-3-5-3-5-0-2(x8)-|

G |------------------------------------------------------------------|
D |------------------------------------------------------------------|
A#|--1(x8)--0(x8)-------------------1(x8)--0(x8)------------------0--|
E |----------------3(x8)--2(x7)--5-----------------3-3-5-3-5-0-5-----|

G |-----------------------------------------------------------------|
D |-----------------------------------------------------------------|
A#|--1-0-1-0-1-0-----0---0---0---0------1-0-1-0-1-0------0---0------|
E |--------------2-----2---2---2---2----------------2------1---1-5--|

G |---------------------------------------------------------------|
D |---------------------------------------------------------------|
A#|--1-0-1-0-1-0------0---0---0---0------1-0-1-0-1-0--------------|
E |--------------2------2---2---2---2----------------2--5--6--7\--|
Suggest correction
Give kudos to tab author, rate the tab!
1 2 3 4 5
comments
print report bad tab
guest
You may want to rate the tab now too:
select rating
Wanna post a correction for this tab? Suggest correction