Oops, an error
Loading. Please wait.

Whore Bass Tab

2,720 views 12 this week
1 commentread comment
1 2 3 4 5
excellent!
x 3
add to favorites
launch autoscroll
font size
0
reset
guitar tuner
Tab Pro tools
  • play this tab
  • loop segment
  • change instrument
  • show fretboard
  • metronome
×
Best way to learn
"Whore"
Autoscroll
slow
fast
+/-
esc
set tempo
stop
Contributor
Tuning
D A D G B E
-------------------------------------------------------------------------------
			     WHORE - Get Scared.
-------------------------------------------------------------------------------

Tabbed By : mariewong.





Tuning: Drop D





Intro [00:12]

G|--------------------------------------------------------------------|
D|--------------------------------------------------------------------|
A|--0-------5---1---4-----5-5---1---0--------5---1---4-----5-5---0----|
D|----1---0---0---0---0-0-----0---0---3----0---0---0---0-0-----0---1--|

G|----------------------------------------------------------------|
D|----------------------------------------------------------------|
A|----5---1---4-----5-5---1---0--------5---1---4-----5-5----------|
D|--0---0---0---0-0-----0---0---3----0---0---0---0-0-----0-5-3-2--|



Verse [00:25]

G|----------------------------------------------------------------|
D|----------------------------------------------------------------|
A|----5---1---4-----5-5---1---0--------5---1---4-----5-5----------|
D|--0---0---0---0-0-----0---0---3----0---0---0---0-0-----0-5-3-2--|

G|--------------------------------------------------------------|
D|--------------------------------------------------------------|
A|----5---1---4-----5-5---1---0--------5---1---4-----5-5---0----|
D|--0---0---0---0-0-----0---0---3----0---0---0---0-0-----0---1--|



Pre-chorus [00:39]

G|------------------------------------------------|
D|------------------------------------------------|
A|--------------------------0-0-0-0---------------|
D|--0-0----0-0----7\-5----2---------3-3-3--2-2-2--|



Chorus [00:45]

G|------------------------------------------|
D|------------------------------------------|
A|-----------0-0-0-0--1-1-1-1---------------|
D|--0-0-0-0--------------------5-5-5--33-3--|

G|--------------------------------------|
D|--------------------------------------|
A|-----------0-0-0-0--1-1-1-1--0--------|
D|--0-0-0-0----------------------5-3-2--|

G|----------------------------------------------------------------|
D|----------------------------------------------------------------|
A|----5---1---4-----5-5---1---0--------5---1---4-----5-5-0-0------|
D|--0---0---0---0-0-----0---0---3----0---0---0---0-0---------1-1--|



Verse [01:04]

G|--------------------------------------------------------------|
D|--------------------------------------------------------------|
A|----5---1---4-----5-5---1---0--------5---1---4-----5-5---0----|
D|--0---0---0---0-0-----0---0---3----0---0---0---0-0-----0---1--|

G|--------------------------------------------------------------|
D|--------------------------------------------------------------|
A|----5---1---4-----5-5---1---0--------5---1---4-----5-5---0----|
D|--0---0---0---0-0-----0---0---3----0---0---0---0-0-----0---1--|



Pre-chorus [01:17]

G|--------------------------------------------|
D|--------------------------------------------|
A|--------------------------------------------|
D|--0--0--0--0--6--6----3-3-3-3--2-2-2-2-2-2--|



Chorus [01:23]

G|------------------------------------------|
D|------------------------------------------|
A|-----------0-0-0-0--1-1-1-1---------------|
D|--0-0-0-0--------------------5-5-5--33-3--|

G|--------------------------------------|
D|--------------------------------------|
A|-----------0-0-0-0--1-1-1-1--0--------|
D|--0-0-0-0----------------------5-3-2--|



Bridge [01:36]

G|----------------------------------------|
D|----------------------------------------|
A|------0-------------------0-------------|
D|--0-------6---3--2----0-------6---3--2--|

G|--------------------------------------------------------------------------------------|
D|--------------------------------------------------------------------------------------|
A|-----------0(x12)-------------------------------------0(x12)--------------------------|
D|--0(x12)------------6(x12)---3(x6)--2(x6)----0(x12)------------6(x12)---3(x4)--2(x6)--|

G|---------------------------------------------------------------------|
D|---------------------------------------------------------------------|
A|-----------0-----0-----------------------0-----0---------------------|
D|--0--12\-------3-----6---3---0-2-----0-------3-----6---3(x4)--2(x6)--|



Chorus [02:14]

G|------------------------------------------|
D|------------------------------------------|
A|-----------0-0-0-0--1-1-1-1---------------|
D|--0-0-0-0--------------------5-5-5--33-3--|

G|--------------------------------------|
D|--------------------------------------|
A|-----------0-0-0-0--1-1-1-1--0--------|
D|--0-0-0-0----------------------5-3-2--|

G|------------------------------------------|
D|------------------------------------------|
A|-----------0-0-0-0--1-1-1-1---------------|
D|--0-0-0-0--------------------5-5-5--33-3--|

G|--------------------------------------------|
D|--------------------------------------------|
A|-----------0-0-0-0--111-111--1-0-------0-4--|
D|--0-0-0-0------------------------5-3-2------|

G|------------------------------------------------------------------|
D|------------------------------------------------------------------|
A|----5---1---4-----5-5---1---0--------5---1---4-----5-5---------0--|
D|--0---0---0---0-0-----0---0---3----0---0---0---0-0-----0-5-3-2----|

G|------------------------------------------------------------------|
D|------------------------------------------------------------------|
A|----5---1---4-----5-5---1---0--------5---1---4-----5-5------------|
D|--0---0---0---0-0-----0---0---3----0---0---0---0-0-----0-5-3-2-0--|





| /  slide up
| \  slide down
| h  hammer-on
| p  pull-off
| ~  vibrato
| +  harmonic
| x  Mute note
===============================================================================
comments
We did not receive enough feedback on this tab! Please rate:
print report bad tab
1 2 3 4 5
1 comment total.
0 reply
screwdepthperce wrote on March 16 2015, 07:25 pm

are the (x#) optional notes like mute 12/1 2 or are they repeat that many times?

I want to post or [tab]
guest
You may want to rate the tab now too:
select rating
Please do not post tabs as comments. Select "correction" instead!