Oops, an error
Loading. Please wait.

Darkness And A Bottle To Hold Tab

1,426 views 3 this week
no commentswrite comment
1 2 3 4 5
2 more votes to show rating
add to favorites
launch autoscroll
font size
0
reset
how to read this tab
guitar tuner
Autoscroll
slow
fast
+/-
esc
set tempo
stop
Help us to improve Ultimate-Guitar.com Take our survey!
×
Author
DARKNESS AND A BOTTLE TO HOLD, from GG Allin.
Appears on the album "GG Allin's Doctrine of Mayhem"
Tabbed by Jake Strange (Scumfuc).
Email:  jakestrange@chaosmagic.com
Played on acoustic guitar. The tuning sounds a
little off from the CD version, but I believe it's correct.
A lot of GG's older music was recorded very badly.
OK, play the following throughout the whole song....

e|-------------------------3-333-3-3333-------------------------------------
B|--5-5-555-5-55555555555--3-333-3-3333---7-777--7-7-77777777777777---------
G|--5-5-555-5-55555555555--4-444-4-4444---7-777--7-7-77777777777777---------
D|--5-5-555-5-55555555555--5-555-5-5555---7-777--7-7-77777777777777---------
A|--3-3-333-3-33333333333--5-555-5-5555---5-555--5-5-55555555555555---------
E|-------------------------3-333-3-3333-------------------------------------

e|-------3---------------------------||------------------------|
B|--3-3--3------3-3----5--------5----||------------------------|
G|--4-4--4-4-4--4-4--6-6--6-6---6-6--||---66666666666666666----|
D|--5-5--5-5-5--5-5--7-7--7-7---7-7--||---77777777777777777----|
A|--5-5--5-5-5--5-5--7-7--7-7-7-7-7--||---77777777777777777----|
E|--3-3--3-3-3--3-3--5-5--5-5-5-5-5--||---55555555555555555----|
    *(play this part 4x)

Song ends on a "D."
Sorry if the timing is off, it probably is.
Suggest correction
Give kudos to tab author, rate the tab!
1 2 3 4 5
comments
print report bad tab
guest
You may want to rate the tab now too:
select rating
Wanna post a correction for this tab? Suggest correction