Oops, an error
Loading. Please wait.

Dead Or Alive Tab

version 1
version 1

Whole song

Interactive

82 views 6 this week
no commentswrite comment
1 2 3 4 5
3 more votes to show rating
add to favorites
launch autoscroll
font size
0
reset
how to read this tab
guitar tuner
Autoscroll
slow
fast
+/-
esc
set tempo
stop
Help us to improve Ultimate-Guitar.com Take our survey!
×
Intro
e|-------------------------|--------------------------|---------------|
B|-------------------------|--------------------------|---------------|
G|-------------------------|--------------------------|----------9----|
D|-------------------------|--------------------------|----------9-9--|
A|-7-7-7-7--9--9-9-9-9-9-8-|--7-7-7-7--9--9-9-9-9-9-8-|-7-7-7-7--7-9--|
E|-5-5-5-5--7--7-7-7-7-7-6-|--5-5-5-5--7--7-7-7-7-7-6-|-5-5-5-5----7--|  

e|-------------------------|-------------------------|-------------------------|-------------------------|
B|-------------------------|-------------------------|-------------------------|-------------------------|
G|-------------------------|-------------------------|-------------------------|-------------------------|
D|-9-9--9-9-------------9--|-9-9--9-9-------------9--|-7-7--7-7-------------7--|-9-9--9-9-------------9--|
A|-7-7--7-7--9--7-7-7-7-9--|-7-7--7-7--9--7-7-7-7-9--|-5-5--5-5--7--5-5-5-5-7--|-7-7--7-7--9--7-7-7-7-9--|
E|-----------7--5-5-5-5-7--|-----------7--5-5-5-5-7--|-----------5--3-3-3-3-5--|-----------7--5-5-5-5-7--|


Verse
e|-------------------------|-------------------------|-------------------------|-------------------------|
B|-------------------------|-------------------------|-------------------------|-------------------------|
G|-------------------------|-------------------------|-------------------------|-------------------------|
D|-9-9--9-9----------------|-9-9--9-9----------------|-9-9--9-9----------------|-9-9--9-9----------------|
A|-7-7--7-7--9--7-7-7-7-9--|-7-7--7-7--9--7-7-7-7-9--|-7-7--7-7--9--7-7-7-7-9--|-7-7--7-7--9--7-7-7-7-9--|
E|-----------7--5-5-5-5-7--|-----------7--5-5-5-5-7--|-----------7--5-5-5-5-7--|-----------7--5-5-5-5-7--|


Chorus
 ("I'm going crazy...")
e|-------------------------|--------------------------|---------------|
B|-------------------------|--------------------------|---------------|
G|-------------------------|--------------------------|---------------|
D|-------------------------|--------------------------|----------9----|
A|-7-7-7-7--9--9-9-9-9-9-8-|--7-7-7-7--9--9-9-9-9-9-8-|-7-7-7-7--7-9--|
E|-5-5-5-5--7--7-7-7-7-7-6-|--5-5-5-5--7--7-7-7-7-7-6-|-5-5-5-5----7--| 

e|-------------------------|-------------------------|-------------------------|-------------------------|
B|-------------------------|-------------------------|-------------------------|-------------------------|
G|-------------------------|-------------------------|-------------------------|-------------------------|
D|-9-9--9-9-------------9--|-9-9--9-9-------------9--|-7-7--7-7-------------7--|-9-9--9-9-------------9--|
A|-7-7--7-7--9--7-7-7-7-9--|-7-7--7-7--9--7-7-7-7-9--|-5-5--5-5--7--5-5-5-5-7--|-7-7--7-7--9--7-7-7-7-9--|
E|-----------7--5-5-5-5-7--|-----------7--5-5-5-5-7--|-----------5--3-3-3-3-5--|-----------7--5-5-5-5-7--|


Verse
e|-------------------------|-------------------------|-------------------------|-------------------------|
B|-------------------------|-------------------------|-------------------------|-------------------------|
G|-------------------------|-------------------------|-------------------------|-------------------------|
D|-9-9--9-9----------------|-9-9--9-9----------------|-9-9--9-9----------------|-9-9--9-9----------------|
A|-7-7--7-7--9--7-7-7-7-9--|-7-7--7-7--9--7-7-7-7-9--|-7-7--7-7--9--7-7-7-7-9--|-7-7--7-7--9--7-7-7-7-9--|
E|-----------7--5-5-5-5-7--|-----------7--5-5-5-5-7--|-----------7--5-5-5-5-7--|-----------7--5-5-5-5-7--|


Chorus
 ("I'm going crazy...")
e|-------------------------|--------------------------|---------------|
B|-------------------------|--------------------------|---------------|
G|-------------------------|--------------------------|---------------|
D|-------------------------|--------------------------|----------9----|
A|-7-7-7-7--9--9-9-9-9-9-8-|--7-7-7-7--9--9-9-9-9-9-8-|-7-7-7-7--7-9--|
E|-5-5-5-5--7--7-7-7-7-7-6-|--5-5-5-5--7--7-7-7-7-7-6-|-5-5-5-5----7--|  

e|-------------------------|-------------------------|-------------------------|-------------------------|
B|-------------------------|-------------------------|-------------------------|-------------------------|
G|-------------------------|-------------------------|-------------------------|-------------------------|
D|-9-9--9-9-------------9--|-9-9--9-9-------------9--|-7-7--7-7-------------7--|-9-9--9-9-------------9--|
A|-7-7--7-7--9--7-7-7-7-9--|-7-7--7-7--9--7-7-7-7-9--|-5-5--5-5--7--5-5-5-5-7--|-7-7--7-7--9--7-7-7-7-9--|
E|-----------7--5-5-5-5-7--|-----------7--5-5-5-5-7--|-----------5--3-3-3-3-5--|-----------7--5-5-5-5-7--|


Solo
 (Just the verse)
e|-------------------------|-------------------------|-------------------------|-------------------------|
B|-------------------------|-------------------------|-------------------------|-------------------------|
G|-------------------------|-------------------------|-------------------------|-------------------------|
D|-9-9--9-9----------------|-9-9--9-9----------------|-9-9--9-9----------------|-9-9--9-9----------------|
A|-7-7--7-7--9--7-7-7-7-9--|-7-7--7-7--9--7-7-7-7-9--|-7-7--7-7--9--7-7-7-7-9--|-7-7--7-7--9--7-7-7-7-9--|
E|-----------7--5-5-5-5-7--|-----------7--5-5-5-5-7--|-----------7--5-5-5-5-7--|-----------7--5-5-5-5-7--|


Chorus
 ("I'm going crazy...")
e|-------------------------|--------------------------|---------------|
B|-------------------------|--------------------------|---------------|
G|-------------------------|--------------------------|---------------|
D|-------------------------|--------------------------|----------9----|
A|-7-7-7-7--9--9-9-9-9-9-8-|--7-7-7-7--9--9-9-9-9-9-8-|-7-7-7-7--7-9--|
E|-5-5-5-5--7--7-7-7-7-7-6-|--5-5-5-5--7--7-7-7-7-7-6-|-5-5-5-5----7--| 

e|-------------------------|-------------------------|-------------------------|-------------------------|
B|-------------------------|-------------------------|-------------------------|-------------------------|
G|-------------------------|-------------------------|-------------------------|-------------------------|
D|-9-9--9-9-------------9--|-9-9--9-9-------------9--|-7-7--7-7-------------7--|-9-9--9-9-------------9--|
A|-7-7--7-7--9--7-7-7-7-9--|-7-7--7-7--9--7-7-7-7-9--|-5-5--5-5--7--5-5-5-5-7--|-7-7--7-7--9--7-7-7-7-9--|
E|-----------7--5-5-5-5-7--|-----------7--5-5-5-5-7--|-----------5--3-3-3-3-5--|-----------7--5-5-5-5-7--|


Verse
e|-------------------------|-------------------------|-------------------------|-------------------------|
B|-------------------------|-------------------------|-------------------------|-------------------------|
G|-------------------------|-------------------------|-------------------------|-------------------------|
D|-9-9--9-9----------------|-9-9--9-9----------------|-9-9--9-9----------------|-9-9--9-9----------------|
A|-7-7--7-7--9--7-7-7-7-9--|-7-7--7-7--9--7-7-7-7-9--|-7-7--7-7--9--7-7-7-7-9--|-7-7--7-7--9--7-7-7-7-9--|
E|-----------7--5-5-5-5-7--|-----------7--5-5-5-5-7--|-----------7--5-5-5-5-7--|-----------7--5-5-5-5-7--|

Chorus
 ("I'm going crazy...")
e|-------------------------|--------------------------|---------------|
B|-------------------------|--------------------------|---------------|
G|-------------------------|--------------------------|---------------|
D|-------------------------|--------------------------|----------9----|
A|-7-7-7-7--9--9-9-9-9-9-8-|--7-7-7-7--9--9-9-9-9-9-8-|-7-7-7-7--7-9--|
E|-5-5-5-5--7--7-7-7-7-7-6-|--5-5-5-5--7--7-7-7-7-7-6-|-5-5-5-5----7--| 

e|-------------------------|--------------------------|---------------|
B|-------------------------|--------------------------|---------------|
G|-------------------------|--------------------------|---------------|
D|-------------------------|--------------------------|----------9----|
A|-7-7-7-7--9--9-9-9-9-9-8-|--7-7-7-7--9--9-9-9-9-9-8-|-7-7-7-7--7-9--|
E|-5-5-5-5--7--7-7-7-7-7-6-|--5-5-5-5--7--7-7-7-7-7-6-|-5-5-5-5----7--|  

e|-------------------------|--------------------------|---------------|-----------|
B|-------------------------|--------------------------|---------------|-----------|
G|-------------------------|--------------------------|---------------|-9---------|
D|-------------------------|--------------------------|----------9----|-9---------|
A|-7-7-7-7--9--9-9-9-9-9-8-|--7-7-7-7--9--9-9-9-9-9-8-|-7-7-7-7--7-9--|-7---------|
E|-5-5-5-5--7--7-7-7-7-7-6-|--5-5-5-5--7--7-7-7-7-7-6-|-5-5-5-5----7--|-----------|
Suggest correction
Give kudos to tab author, rate the tab!
1 2 3 4 5
comments
print report bad tab
guest
You may want to rate the tab now too:
select rating
Wanna post a correction for this tab? Suggest correction