Oops, an error
Loading. Please wait.

Fuck Women Ive Never Had Tab

4,262 views 3 this week
no commentswrite comment
1 2 3 4 5
please rate
add to favorites
launch autoscroll
font size
0
reset
how to read this tab
guitar tuner
Autoscroll
slow
fast
+/-
esc
set tempo
stop
Help us to improve Ultimate-Guitar.com Take our survey!
×
Author
FUCK WOMEN I'VE NEVER HAD
by GG Allin & the Scumfucs.
Based on a song by Hank Williams, Jr.
Tabbed by Jake Strange.
E-mail: jakestrange@chaosmagic.com
Play all verses as I have tabbed the 1st verse...also
play the same thing under the solo.

e|--------------------------------------||
B|--------------------------------------||
G|---------------5----------------------||
D|--3------------5----------------3-----||
A|--3------------3----------------3-----||
E|--1-----------------------------1-----||
  "I like making noise and sixty-nines"

e|----------------------------------------||
B|----------------------------------------||
G|--3------------------------------5------||
D|--3-------------3----------------5------|
A|--1-------------3----------------3------||
E|----------------1-----------------------||
  "I like getting drunk and doing lines"

e|---------------------------------------------||
B|---------------------------------------------||
G|--3---------------------------------------3--||
D|--3---------------------------------3-----3--||
A|--1---------------------------------3-----1--||
E|------------------------------------1--------||
  "I don't really care if it pisses fags, yeah"

e|---------------------------------------------||
B|---------------------------------------------||
G|----------------------5----------------------||
D|--3-------------------5---------------3------||
A|--3-------------------3---------------3------||
E|--1-----------------------------------1------||
  "And I like to fuck women I've never had"


I take a lot of smoke & a lot of wine
I get high w/ all those friends of mine
I like the sluts & whores ???????
& I like to fuck women I've never had

I like to drink my whiskey & shoot my drugs
I'm just a scumfuc suckin' dog
?????????????????????
& I like to fuck pussy I've never had
Suggest correction
Give kudos to tab author, rate the tab!
1 2 3 4 5
comments
print report bad tab
guest
You may want to rate the tab now too:
select rating
Please do not post tabs as comments. Select "correction" instead!